0
SECTION
2
HEADER
9
$EXTMIN
10
0.00
20
0.00
30
0.00
9
$EXTMAX
10
200.70
20
128.52
30
84.34
9
$PDMODE
70
3
9
$PDSIZE
40
  0.80
0
ENDSEC
0
SECTION
2
TABLES
0
TABLE
2
LTYPE
70
10
0
LTYPE
2
CONTINUOUS
70
64
3
Continuous
72
65
73
0
40
0.0
0
LTYPE
2
DASHED
70
64
3
Dashed
72
65
73
2
40
2.5
49
1.25
49
-1.25
0
ENDTAB
0
TABLE
2
LAYER
70
10
0
LAYER
2
CentreLine
70
64
62
5
6
CONTINUOUS
0
LAYER
2
Stations
70
64
62
7
6
CONTINUOUS
0
LAYER
2
Labels
70
64
62
7
6
CONTINUOUS
0
LAYER
2
Surface
70
64
62
5
6
DASHED
0
LAYER
2
SurfaceStations
70
64
62
7
6
CONTINUOUS
0
LAYER
2
SurfaceLabels
70
64
62
7
6
CONTINUOUS
0
LAYER
2
Grid
70
64
62
7
6
CONTINUOUS
0
ENDTAB
0
ENDSEC
0
SECTION
2
ENTITIES
0
LINE
8
Grid
10
100.00
20
  0.00
30
0
11
100.00
21
128.52
31
0
0
LINE
8
Grid
10
200.00
20
  0.00
30
0
11
200.00
21
128.52
31
0
0
LINE
8
Grid
10
  0.00
20
100.00
30
0
11
200.70
21
100.00
31
0
0
LINE
8
CentreLine
10
117.67
20
 66.60
30
 84.34
11
117.67
21
 66.60
31
 81.04
0
LINE
8
CentreLine
10
117.67
20
 66.60
30
 81.04
11
117.44
21
 66.60
31
 78.95
0
LINE
8
CentreLine
10
117.44
20
 66.60
30
 78.95
11
117.30
21
 66.45
31
 78.54
0
LINE
8
CentreLine
10
117.30
20
 66.45
30
 78.54
11
116.88
21
 65.94
31
 77.60
0
LINE
8
CentreLine
10
116.88
20
 65.94
30
 77.60
11
116.60
21
 65.95
31
 73.29
0
LINE
8
CentreLine
10
116.60
20
 65.95
30
 73.29
11
116.21
21
 65.78
31
 72.94
0
LINE
8
CentreLine
10
116.21
20
 65.78
30
 72.94
11
116.39
21
 64.12
31
 65.84
0
LINE
8
CentreLine
10
116.39
20
 64.12
30
 65.84
11
115.61
21
 62.85
31
 64.79
0
LINE
8
CentreLine
10
115.61
20
 62.85
30
 64.79
11
114.54
21
 63.41
31
 63.77
0
LINE
8
CentreLine
10
114.54
20
 63.41
30
 63.77
11
112.71
21
 63.19
31
 59.83
0
LINE
8
CentreLine
10
112.71
20
 63.19
30
 59.83
11
112.56
21
 64.17
31
 50.53
0
LINE
8
CentreLine
10
112.56
20
 64.17
30
 50.53
11
114.62
21
 63.84
31
 51.08
0
LINE
8
CentreLine
10
114.62
20
 63.84
30
 51.08
11
115.61
21
 63.59
31
 50.28
0
LINE
8
CentreLine
10
115.61
20
 63.59
30
 50.28
11
116.68
21
 63.06
31
 49.63
0
LINE
8
CentreLine
10
116.68
20
 63.06
30
 49.63
11
117.53
21
 61.72
31
 48.96
0
LINE
8
CentreLine
10
117.53
20
 61.72
30
 48.96
11
118.21
21
 59.59
31
 48.25
0
LINE
8
CentreLine
10
118.21
20
 59.59
30
 48.25
11
118.21
21
 59.59
31
 48.25
0
LINE
8
CentreLine
10
118.21
20
 59.59
30
 48.25
11
117.00
21
 60.35
31
 48.24
0
LINE
8
CentreLine
10
117.00
20
 60.35
30
 48.24
11
117.21
21
 61.42
31
 48.39
0
LINE
8
CentreLine
10
117.21
20
 61.42
30
 48.39
11
115.53
21
 62.85
31
 48.44
0
LINE
8
CentreLine
10
115.53
20
 62.85
30
 48.44
11
113.44
21
 63.26
31
 48.56
0
LINE
8
CentreLine
10
118.21
20
 59.59
30
 48.25
11
119.89
21
 59.24
31
 48.82
0
LINE
8
CentreLine
10
119.89
20
 59.24
30
 48.82
11
120.90
21
 57.77
31
 48.59
0
LINE
8
CentreLine
10
120.90
20
 57.77
30
 48.59
11
121.48
21
 58.90
31
 48.35
0
LINE
8
CentreLine
10
121.48
20
 58.90
30
 48.35
11
120.94
21
 61.11
31
 48.17
0
LINE
8
CentreLine
10
118.21
20
 59.59
30
 48.25
11
116.95
21
 60.29
31
 47.72
0
LINE
8
CentreLine
10
116.95
20
 60.29
30
 47.72
11
116.19
21
 60.64
31
 46.47
0
LINE
8
CentreLine
10
116.19
20
 60.64
30
 46.47
11
115.27
21
 60.70
31
 45.59
0
LINE
8
CentreLine
10
115.27
20
 60.70
30
 45.59
11
115.18
21
 60.90
31
 45.29
0
LINE
8
CentreLine
10
115.18
20
 60.90
30
 45.29
11
114.43
21
 61.35
31
 45.19
0
LINE
8
CentreLine
10
114.43
20
 61.35
30
 45.19
11
113.67
21
 62.97
31
 45.15
0
LINE
8
CentreLine
10
113.67
20
 62.97
30
 45.15
11
114.12
21
 63.78
31
 44.97
0
LINE
8
CentreLine
10
114.12
20
 63.78
30
 44.97
11
113.19
21
 64.73
31
 43.86
0
LINE
8
CentreLine
10
113.19
20
 64.73
30
 43.86
11
113.22
21
 64.76
31
 41.89
0
LINE
8
CentreLine
10
113.22
20
 64.76
30
 41.89
11
112.71
21
 64.83
31
 41.05
0
LINE
8
CentreLine
10
112.71
20
 64.83
30
 41.05
11
112.11
21
 64.31
31
 41.12
0
LINE
8
CentreLine
10
112.11
20
 64.31
30
 41.12
11
111.24
21
 65.46
31
 41.01
0
LINE
8
CentreLine
10
111.24
20
 65.46
30
 41.01
11
109.76
21
 65.90
31
 38.28
0
LINE
8
CentreLine
10
109.76
20
 65.90
30
 38.28
11
108.58
21
 66.32
31
 37.49
0
LINE
8
CentreLine
10
108.58
20
 66.32
30
 37.49
11
108.29
21
 66.30
31
 37.06
0
LINE
8
CentreLine
10
108.29
20
 66.30
30
 37.06
11
108.07
21
 66.73
31
 36.75
0
LINE
8
CentreLine
10
108.07
20
 66.73
30
 36.75
11
107.31
21
 66.53
31
 37.33
0
LINE
8
CentreLine
10
107.31
20
 66.53
30
 37.33
11
107.31
21
 66.53
31
 37.33
0
LINE
8
CentreLine
10
107.31
20
 66.53
30
 37.33
11
107.31
21
 66.53
31
 37.33
0
LINE
8
CentreLine
10
107.31
20
 66.53
30
 37.33
11
107.42
21
 66.74
31
 36.48
0
LINE
8
CentreLine
10
107.42
20
 66.74
30
 36.48
11
107.27
21
 67.26
31
 35.09
0
LINE
8
CentreLine
10
107.27
20
 67.26
30
 35.09
11
105.10
21
 68.03
31
 34.15
0
LINE
8
CentreLine
10
105.10
20
 68.03
30
 34.15
11
104.17
21
 68.89
31
 34.15
0
LINE
8
CentreLine
10
104.17
20
 68.89
30
 34.15
11
102.76
21
 69.17
31
 34.50
0
LINE
8
CentreLine
10
102.76
20
 69.17
30
 34.50
11
102.91
21
 69.78
31
 34.48
0
LINE
8
CentreLine
10
102.91
20
 69.78
30
 34.48
11
102.23
21
 69.29
31
 36.38
0
LINE
8
CentreLine
10
102.23
20
 69.29
30
 36.38
11
103.06
21
 69.05
31
 36.18
0
LINE
8
CentreLine
10
103.06
20
 69.05
30
 36.18
11
102.83
21
 68.20
31
 36.33
0
LINE
8
CentreLine
10
102.83
20
 68.20
30
 36.33
11
103.67
21
 67.75
31
 36.34
0
LINE
8
CentreLine
10
103.67
20
 67.75
30
 36.34
11
103.61
21
 66.79
31
 36.10
0
LINE
8
CentreLine
10
103.61
20
 66.79
30
 36.10
11
104.59
21
 66.37
31
 36.20
0
LINE
8
CentreLine
10
104.59
20
 66.37
30
 36.20
11
106.15
21
 64.67
31
 36.70
0
LINE
8
CentreLine
10
106.15
20
 64.67
30
 36.70
11
107.44
21
 63.47
31
 36.82
0
LINE
8
CentreLine
10
107.44
20
 63.47
30
 36.82
11
108.69
21
 62.71
31
 37.21
0
LINE
8
CentreLine
10
108.69
20
 62.71
30
 37.21
11
110.28
21
 61.84
31
 36.98
0
LINE
8
CentreLine
10
110.28
20
 61.84
30
 36.98
11
110.93
21
 60.43
31
 37.11
0
LINE
8
CentreLine
10
110.93
20
 60.43
30
 37.11
11
111.91
21
 60.78
31
 36.12
0
LINE
8
CentreLine
10
111.91
20
 60.78
30
 36.12
11
112.23
21
 59.92
31
 35.65
0
LINE
8
CentreLine
10
112.23
20
 59.92
30
 35.65
11
113.30
21
 58.46
31
 35.42
0
LINE
8
CentreLine
10
113.30
20
 58.46
30
 35.42
11
113.89
21
 57.95
31
 35.82
0
LINE
8
CentreLine
10
113.89
20
 57.95
30
 35.82
11
115.57
21
 56.27
31
 35.45
0
LINE
8
CentreLine
10
115.57
20
 56.27
30
 35.45
11
116.97
21
 56.15
31
 34.88
0
LINE
8
CentreLine
10
116.97
20
 56.15
30
 34.88
11
119.17
21
 55.23
31
 34.36
0
LINE
8
CentreLine
10
119.17
20
 55.23
30
 34.36
11
120.92
21
 54.31
31
 35.15
0
LINE
8
CentreLine
10
120.92
20
 54.31
30
 35.15
11
122.10
21
 54.57
31
 35.05
0
LINE
8
CentreLine
10
122.10
20
 54.57
30
 35.05
11
122.99
21
 53.99
31
 35.20
0
LINE
8
CentreLine
10
122.99
20
 53.99
30
 35.20
11
123.57
21
 54.11
31
 35.34
0
LINE
8
CentreLine
10
123.57
20
 54.11
30
 35.34
11
124.26
21
 53.84
31
 35.30
0
LINE
8
CentreLine
10
116.97
20
 56.15
30
 34.88
11
115.78
21
 55.69
31
 34.55
0
LINE
8
CentreLine
10
115.78
20
 55.69
30
 34.55
11
114.47
21
 56.32
31
 34.04
0
LINE
8
CentreLine
10
114.47
20
 56.32
30
 34.04
11
113.28
21
 56.35
31
 33.03
0
LINE
8
CentreLine
10
107.31
20
 66.53
30
 37.33
11
107.44
21
 66.74
31
 36.43
0
LINE
8
CentreLine
10
107.44
20
 66.74
30
 36.43
11
107.18
21
 67.31
31
 35.05
0
LINE
8
CentreLine
10
107.18
20
 67.31
30
 35.05
11
106.22
21
 67.71
31
 35.06
0
LINE
8
CentreLine
10
106.22
20
 67.71
30
 35.06
11
105.46
21
 67.77
31
 34.65
0
LINE
8
CentreLine
10
105.46
20
 67.77
30
 34.65
11
105.61
21
 66.92
31
 34.10
0
LINE
8
CentreLine
10
105.61
20
 66.92
30
 34.10
11
104.69
21
 67.03
31
 30.39
0
LINE
8
CentreLine
10
104.69
20
 67.03
30
 30.39
11
104.83
21
 67.30
31
 28.96
0
LINE
8
CentreLine
10
104.83
20
 67.30
30
 28.96
11
101.93
21
 65.11
31
 24.09
0
LINE
8
CentreLine
10
101.93
20
 65.11
30
 24.09
11
104.26
21
 63.85
31
 23.77
0
LINE
8
CentreLine
10
104.26
20
 63.85
30
 23.77
11
105.38
21
 64.83
31
 24.66
0
LINE
8
CentreLine
10
105.38
20
 64.83
30
 24.66
11
105.97
21
 65.91
31
 24.18
0
LINE
8
CentreLine
10
105.97
20
 65.91
30
 24.18
11
106.16
21
 65.65
31
 24.16
0
LINE
8
CentreLine
10
106.16
20
 65.65
30
 24.16
11
107.56
21
 65.12
31
 24.27
0
LINE
8
CentreLine
10
107.56
20
 65.12
30
 24.27
11
108.58
21
 64.47
31
 24.17
0
LINE
8
CentreLine
10
108.58
20
 64.47
30
 24.17
11
110.59
21
 63.75
31
 22.79
0
LINE
8
CentreLine
10
110.59
20
 63.75
30
 22.79
11
111.71
21
 62.76
31
 23.49
0
LINE
8
CentreLine
10
111.71
20
 62.76
30
 23.49
11
113.07
21
 61.20
31
 23.22
0
LINE
8
CentreLine
10
113.07
20
 61.20
30
 23.22
11
115.69
21
 59.86
31
 22.57
0
LINE
8
CentreLine
10
115.69
20
 59.86
30
 22.57
11
116.70
21
 57.86
31
 23.06
0
LINE
8
CentreLine
10
116.70
20
 57.86
30
 23.06
11
118.24
21
 58.10
31
 23.05
0
LINE
8
CentreLine
10
118.24
20
 58.10
30
 23.05
11
119.18
21
 56.76
31
 23.01
0
LINE
8
CentreLine
10
119.18
20
 56.76
30
 23.01
11
121.20
21
 56.75
31
 23.11
0
LINE
8
CentreLine
10
121.20
20
 56.75
30
 23.11
11
122.44
21
 55.12
31
 23.14
0
LINE
8
CentreLine
10
122.44
20
 55.12
30
 23.14
11
123.49
21
 55.05
31
 23.79
0
LINE
8
CentreLine
10
123.49
20
 55.05
30
 23.79
11
124.12
21
 55.14
31
 24.85
0
LINE
8
CentreLine
10
124.12
20
 55.14
30
 24.85
11
125.07
21
 54.78
31
 24.66
0
LINE
8
CentreLine
10
125.07
20
 54.78
30
 24.66
11
126.18
21
 54.29
31
 25.80
0
LINE
8
CentreLine
10
126.18
20
 54.29
30
 25.80
11
126.18
21
 54.29
31
 29.80
0
LINE
8
CentreLine
10
126.18
20
 54.29
30
 29.80
11
127.10
21
 53.88
31
 29.80
0
LINE
8
CentreLine
10
101.93
20
 65.11
30
 24.09
11
102.00
21
 63.52
31
 22.67
0
LINE
8
CentreLine
10
102.00
20
 63.52
30
 22.67
11
 97.94
21
 64.55
31
 21.67
0
LINE
8
CentreLine
10
 97.94
20
 64.55
30
 21.67
11
 96.70
21
 65.02
31
 20.69
0
LINE
8
CentreLine
10
 96.70
20
 65.02
30
 20.69
11
 95.13
21
 64.14
31
 19.77
0
LINE
8
CentreLine
10
 95.13
20
 64.14
30
 19.77
11
 92.73
21
 65.05
31
 19.06
0
LINE
8
CentreLine
10
 92.73
20
 65.05
30
 19.06
11
 90.15
21
 65.03
31
 17.27
0
LINE
8
CentreLine
10
 90.15
20
 65.03
30
 17.27
11
 90.19
21
 63.93
31
 16.65
0
LINE
8
CentreLine
10
 90.19
20
 63.93
30
 16.65
11
 85.57
21
 65.46
31
 15.43
0
LINE
8
CentreLine
10
 85.57
20
 65.46
30
 15.43
11
 84.63
21
 66.80
31
 14.93
0
LINE
8
CentreLine
10
 84.63
20
 66.80
30
 14.93
11
 83.46
21
 67.12
31
 14.97
0
LINE
8
CentreLine
10
 83.46
20
 67.12
30
 14.97
11
 82.56
21
 68.26
31
 14.02
0
LINE
8
CentreLine
10
 82.56
20
 68.26
30
 14.02
11
 82.07
21
 67.51
31
 13.34
0
LINE
8
CentreLine
10
 82.07
20
 67.51
30
 13.34
11
 81.13
21
 67.51
31
 13.16
0
LINE
8
CentreLine
10
 81.13
20
 67.51
30
 13.16
11
 79.13
21
 69.03
31
 11.94
0
LINE
8
CentreLine
10
 79.13
20
 69.03
30
 11.94
11
 78.94
21
 69.07
31
 10.97
0
LINE
8
CentreLine
10
 78.94
20
 69.07
30
 10.97
11
 75.84
21
 70.29
31
 11.10
0
LINE
8
CentreLine
10
 75.84
20
 70.29
30
 11.10
11
 71.96
21
 72.40
31
  9.15
0
LINE
8
CentreLine
10
 71.96
20
 72.40
30
  9.15
11
 68.13
21
 72.39
31
  7.13
0
LINE
8
CentreLine
10
 68.13
20
 72.39
30
  7.13
11
 66.41
21
 74.80
31
  7.47
0
LINE
8
CentreLine
10
 66.41
20
 74.80
30
  7.47
11
 65.38
21
 73.85
31
  6.23
0
LINE
8
CentreLine
10
 65.38
20
 73.85
30
  6.23
11
 63.18
21
 74.69
31
  6.16
0
LINE
8
CentreLine
10
 63.18
20
 74.69
30
  6.16
11
 61.46
21
 75.17
31
  5.80
0
LINE
8
CentreLine
10
 61.46
20
 75.17
30
  5.80
11
 60.95
21
 75.05
31
  5.66
0
LINE
8
CentreLine
10
 60.95
20
 75.05
30
  5.66
11
 60.95
21
 75.05
31
  5.66
0
LINE
8
CentreLine
10
 60.95
20
 75.05
30
  5.66
11
 59.85
21
 74.57
31
  4.28
0
LINE
8
CentreLine
10
 59.85
20
 74.57
30
  4.28
11
 57.76
21
 74.48
31
  2.60
0
LINE
8
CentreLine
10
 57.76
20
 74.48
30
  2.60
11
 55.98
21
 74.38
31
  2.53
0
LINE
8
CentreLine
10
 55.98
20
 74.38
30
  2.53
11
 53.77
21
 75.32
31
  1.00
0
LINE
8
CentreLine
10
 53.77
20
 75.32
30
  1.00
11
 52.82
21
 76.40
31
  1.19
0
LINE
8
CentreLine
10
 52.82
20
 76.40
30
  1.19
11
 52.25
21
 78.42
31
  1.50
0
LINE
8
CentreLine
10
 52.25
20
 78.42
30
  1.50
11
 51.87
21
 77.94
31
  0.95
0
LINE
8
CentreLine
10
 51.87
20
 77.94
30
  0.95
11
 50.87
21
 77.42
31
  0.11
0
LINE
8
CentreLine
10
 60.95
20
 75.05
30
  5.66
11
 60.76
21
 75.22
31
  5.84
0
LINE
8
CentreLine
10
 60.76
20
 75.22
30
  5.84
11
 60.40
21
 75.06
31
  5.75
0
LINE
8
CentreLine
10
 60.40
20
 75.06
30
  5.75
11
 60.47
21
 75.33
31
  7.80
0
LINE
8
CentreLine
10
 60.76
20
 75.22
30
  5.84
11
 60.12
21
 75.33
31
  5.08
0
LINE
8
CentreLine
10
 60.12
20
 75.33
30
  5.08
11
 59.02
21
 74.44
31
  4.07
0
LINE
8
CentreLine
10
 60.76
20
 75.22
30
  5.84
11
 59.58
21
 76.52
31
  5.62
0
LINE
8
CentreLine
10
 59.58
20
 76.52
30
  5.62
11
 58.60
21
 76.89
31
  6.45
0
LINE
8
CentreLine
10
118.21
20
 59.59
30
 48.25
11
116.73
21
 60.07
31
 46.62
0
LINE
8
CentreLine
10
118.21
20
 59.59
30
 48.25
11
119.17
21
 58.99
31
 48.52
0
LINE
8
CentreLine
10
119.17
20
 58.99
30
 48.52
11
121.00
21
 58.33
31
 48.72
0
LINE
8
CentreLine
10
121.00
20
 58.33
30
 48.72
11
122.79
21
 56.27
31
 48.16
0
LINE
8
CentreLine
10
122.79
20
 56.27
30
 48.16
11
123.32
21
 55.73
31
 47.88
0
LINE
8
CentreLine
10
123.32
20
 55.73
30
 47.88
11
124.48
21
 55.81
31
 47.78
0
LINE
8
CentreLine
10
124.48
20
 55.81
30
 47.78
11
124.53
21
 53.62
31
 39.89
0
LINE
8
CentreLine
10
124.53
20
 53.62
30
 39.89
11
123.64
21
 52.47
31
 39.89
0
LINE
8
CentreLine
10
123.64
20
 52.47
30
 39.89
11
122.26
21
 52.69
31
 39.81
0
LINE
8
CentreLine
10
122.26
20
 52.69
30
 39.81
11
120.63
21
 52.58
31
 40.66
0
LINE
8
CentreLine
10
120.63
20
 52.58
30
 40.66
11
119.64
21
 52.32
31
 40.85
0
LINE
8
CentreLine
10
119.64
20
 52.32
30
 40.85
11
118.50
21
 51.73
31
 40.57
0
LINE
8
CentreLine
10
118.50
20
 51.73
30
 40.57
11
118.67
21
 50.90
31
 39.65
0
LINE
8
CentreLine
10
118.67
20
 50.90
30
 39.65
11
118.58
21
 50.84
31
 38.23
0
LINE
8
CentreLine
10
118.58
20
 50.84
30
 38.23
11
117.95
21
 50.59
31
 37.50
0
LINE
8
CentreLine
10
117.95
20
 50.59
30
 37.50
11
117.37
21
 50.43
31
 37.22
0
LINE
8
CentreLine
10
117.37
20
 50.43
30
 37.22
11
115.64
21
 50.08
31
 36.93
0
LINE
8
CentreLine
10
124.53
20
 53.62
30
 39.89
11
127.03
21
 53.94
31
 39.15
0
LINE
8
CentreLine
10
124.48
20
 55.81
30
 47.78
11
124.44
21
 56.06
31
 48.67
0
LINE
8
CentreLine
10
124.44
20
 56.06
30
 48.67
11
127.04
21
 55.79
31
 48.29
0
LINE
8
CentreLine
10
127.04
20
 55.79
30
 48.29
11
127.69
21
 54.74
31
 48.49
0
LINE
8
CentreLine
10
127.69
20
 54.74
30
 48.49
11
128.75
21
 55.67
31
 48.44
0
LINE
8
CentreLine
10
128.75
20
 55.67
30
 48.44
11
130.22
21
 55.06
31
 48.50
0
LINE
8
CentreLine
10
130.22
20
 55.06
30
 48.50
11
131.97
21
 54.15
31
 48.40
0
LINE
8
CentreLine
10
131.97
20
 54.15
30
 48.40
11
134.06
21
 54.37
31
 48.53
0
LINE
8
CentreLine
10
134.06
20
 54.37
30
 48.53
11
136.50
21
 53.84
31
 49.00
0
LINE
8
CentreLine
10
136.50
20
 53.84
30
 49.00
11
139.06
21
 54.28
31
 50.07
0
LINE
8
CentreLine
10
139.06
20
 54.28
30
 50.07
11
140.34
21
 54.06
31
 50.69
0
LINE
8
CentreLine
10
140.34
20
 54.06
30
 50.69
11
141.13
21
 53.43
31
 51.50
0
LINE
8
CentreLine
10
141.13
20
 53.43
30
 51.50
11
142.46
21
 53.44
31
 52.32
0
LINE
8
CentreLine
10
142.46
20
 53.44
30
 52.32
11
142.08
21
 54.78
31
 51.98
0
LINE
8
CentreLine
10
142.46
20
 53.44
30
 52.32
11
142.53
21
 53.35
31
 51.21
0
LINE
8
CentreLine
10
142.46
20
 53.44
30
 52.32
11
142.20
21
 56.13
31
 53.00
0
LINE
8
CentreLine
10
142.20
20
 56.13
30
 53.00
11
140.85
21
 56.34
31
 52.60
0
LINE
8
CentreLine
10
140.85
20
 56.34
30
 52.60
11
140.01
21
 57.27
31
 53.48
0
LINE
8
CentreLine
10
142.20
20
 56.13
30
 53.00
11
143.36
21
 55.83
31
 53.50
0
LINE
8
CentreLine
10
143.36
20
 55.83
30
 53.50
11
143.81
21
 55.77
31
 54.18
0
LINE
8
CentreLine
10
143.81
20
 55.77
30
 54.18
11
144.12
21
 56.66
31
 54.87
0
LINE
8
CentreLine
10
144.12
20
 56.66
30
 54.87
11
143.08
21
 57.08
31
 55.11
0
LINE
8
CentreLine
10
143.08
20
 57.08
30
 55.11
11
142.07
21
 57.85
31
 56.02
0
LINE
8
CentreLine
10
142.07
20
 57.85
30
 56.02
11
142.45
21
 58.93
31
 56.84
0
LINE
8
CentreLine
10
142.45
20
 58.93
30
 56.84
11
142.47
21
 59.92
31
 57.54
0
LINE
8
CentreLine
10
142.47
20
 59.92
30
 57.54
11
142.35
21
 60.64
31
 57.90
0
LINE
8
CentreLine
10
142.35
20
 60.64
30
 57.90
11
142.29
21
 61.21
31
 58.15
0
LINE
8
CentreLine
10
142.29
20
 61.21
30
 58.15
11
143.79
21
 61.19
31
 59.25
0
LINE
8
CentreLine
10
142.29
20
 61.21
30
 58.15
11
140.84
21
 61.03
31
 58.41
0
LINE
8
CentreLine
10
142.46
20
 53.44
30
 52.32
11
144.17
21
 53.74
31
 52.76
0
LINE
8
CentreLine
10
144.17
20
 53.74
30
 52.76
11
145.15
21
 53.79
31
 53.33
0
LINE
8
CentreLine
10
145.15
20
 53.79
30
 53.33
11
145.14
21
 53.93
31
 54.57
0
LINE
8
CentreLine
10
145.14
20
 53.93
30
 54.57
11
146.30
21
 54.27
31
 55.10
0
LINE
8
CentreLine
10
146.30
20
 54.27
30
 55.10
11
146.23
21
 54.64
31
 55.98
0
LINE
8
CentreLine
10
146.23
20
 54.64
30
 55.98
11
146.29
21
 54.35
31
 56.76
0
LINE
8
CentreLine
10
146.29
20
 54.35
30
 56.76
11
146.50
21
 54.94
31
 57.79
0
LINE
8
CentreLine
10
146.50
20
 54.94
30
 57.79
11
147.57
21
 54.64
31
 57.49
0
LINE
8
CentreLine
10
147.57
20
 54.64
30
 57.49
11
146.04
21
 55.41
31
 58.08
0
LINE
8
CentreLine
10
146.04
20
 55.41
30
 58.08
11
145.48
21
 55.95
31
 58.74
0
LINE
8
CentreLine
10
145.48
20
 55.95
30
 58.74
11
144.74
21
 55.86
31
 59.18
0
LINE
8
CentreLine
10
144.74
20
 55.86
30
 59.18
11
144.03
21
 56.28
31
 59.35
0
LINE
8
CentreLine
10
144.03
20
 56.28
30
 59.35
11
142.77
21
 57.12
31
 60.52
0
LINE
8
CentreLine
10
142.77
20
 57.12
30
 60.52
11
141.63
21
 54.28
31
 50.90
0
LINE
8
CentreLine
10
142.77
20
 57.12
30
 60.52
11
141.70
21
 57.24
31
 60.96
0
LINE
8
CentreLine
10
141.70
20
 57.24
30
 60.96
11
141.20
21
 58.30
31
 62.25
0
LINE
8
CentreLine
10
141.20
20
 58.30
30
 62.25
11
140.01
21
 58.09
31
 62.59
0
LINE
8
CentreLine
10
140.01
20
 58.09
30
 62.59
11
138.75
21
 58.41
31
 62.96
0
LINE
8
CentreLine
10
138.75
20
 58.41
30
 62.96
11
137.52
21
 59.55
31
 63.42
0
LINE
8
CentreLine
10
137.52
20
 59.55
30
 63.42
11
137.00
21
 60.01
31
 63.85
0
LINE
8
CentreLine
10
137.00
20
 60.01
30
 63.85
11
136.33
21
 60.04
31
 63.62
0
LINE
8
CentreLine
10
136.33
20
 60.04
30
 63.62
11
134.58
21
 60.24
31
 63.50
0
LINE
8
CentreLine
10
147.57
20
 54.64
30
 57.49
11
148.67
21
 54.31
31
 58.02
0
LINE
8
CentreLine
10
148.67
20
 54.31
30
 58.02
11
149.54
21
 53.75
31
 57.50
0
LINE
8
CentreLine
10
149.54
20
 53.75
30
 57.50
11
150.69
21
 53.43
31
 57.54
0
LINE
8
CentreLine
10
115.61
20
 62.85
30
 64.79
11
115.60
21
 63.45
31
 62.68
0
LINE
8
CentreLine
10
115.60
20
 63.45
30
 62.68
11
112.72
21
 63.86
31
 60.20
0
LINE
8
CentreLine
10
115.61
20
 62.85
30
 64.79
11
116.62
21
 63.13
31
 63.99
0
LINE
8
CentreLine
10
116.62
20
 63.13
30
 63.99
11
116.32
21
 61.63
31
 64.31
0
LINE
8
CentreLine
10
116.32
20
 61.63
30
 64.31
11
115.31
21
 59.20
31
 63.74
0
LINE
8
CentreLine
10
115.31
20
 59.20
30
 63.74
11
115.14
21
 57.70
31
 63.43
0
LINE
8
CentreLine
10
115.14
20
 57.70
30
 63.43
11
114.76
21
 56.47
31
 63.64
0
LINE
8
CentreLine
10
114.76
20
 56.47
30
 63.64
11
110.77
21
 56.20
31
 64.81
0
LINE
8
CentreLine
10
110.77
20
 56.20
30
 64.81
11
107.19
21
 54.93
31
 65.60
0
LINE
8
CentreLine
10
117.67
20
 66.60
30
 81.04
11
119.01
21
 69.84
31
 84.34
0
LINE
8
CentreLine
10
119.01
20
 69.84
30
 84.34
11
119.15
21
 71.17
31
 83.41
0
LINE
8
CentreLine
10
114.54
20
 63.41
30
 63.77
11
114.17
21
 63.48
31
 63.82
0
LINE
8
CentreLine
10
114.54
20
 63.41
30
 63.77
11
113.64
21
 64.43
31
 63.84
0
LINE
8
CentreLine
10
114.54
20
 63.41
30
 63.77
11
114.21
21
 63.03
31
 63.97
0
LINE
8
CentreLine
10
114.54
20
 63.41
30
 63.77
11
114.82
21
 64.04
31
 63.92
0
LINE
8
CentreLine
10
112.71
20
 63.19
30
 59.83
11
113.56
21
 63.80
31
 60.15
0
LINE
8
CentreLine
10
112.71
20
 63.19
30
 59.83
11
113.32
21
 64.28
31
 59.86
0
LINE
8
CentreLine
10
112.71
20
 63.19
30
 59.83
11
111.59
21
 64.73
31
 60.09
0
LINE
8
CentreLine
10
112.71
20
 63.19
30
 59.83
11
112.17
21
 63.48
31
 59.90
0
LINE
8
CentreLine
10
112.71
20
 63.19
30
 59.83
11
112.51
21
 63.12
31
 59.86
0
LINE
8
CentreLine
10
112.56
20
 64.17
30
 50.53
11
112.72
21
 63.16
31
 59.88
0
LINE
8
CentreLine
10
112.56
20
 64.17
30
 50.53
11
112.72
21
 63.21
31
 59.43
0
LINE
8
CentreLine
10
112.56
20
 64.17
30
 50.53
11
112.72
21
 63.20
31
 59.46
0
LINE
8
CentreLine
10
112.56
20
 64.17
30
 50.53
11
112.71
21
 63.18
31
 59.83
0
LINE
8
CentreLine
10
112.56
20
 64.17
30
 50.53
11
112.70
21
 63.19
31
 59.85
0
LINE
8
CentreLine
10
112.56
20
 64.17
30
 50.53
11
112.39
21
 62.95
31
 50.68
0
LINE
8
CentreLine
10
112.56
20
 64.17
30
 50.53
11
113.72
21
 62.52
31
 51.41
0
LINE
8
CentreLine
10
112.56
20
 64.17
30
 50.53
11
113.17
21
 63.25
31
 50.97
0
LINE
8
CentreLine
10
112.56
20
 64.17
30
 50.53
11
114.21
21
 62.37
31
 51.09
0
LINE
8
CentreLine
10
112.56
20
 64.17
30
 50.53
11
114.52
21
 62.83
31
 51.31
0
LINE
8
CentreLine
10
112.56
20
 64.17
30
 50.53
11
114.92
21
 63.09
31
 50.61
0
LINE
8
CentreLine
10
112.56
20
 64.17
30
 50.53
11
111.06
21
 63.65
31
 50.79
0
LINE
8
CentreLine
10
112.56
20
 64.17
30
 50.53
11
111.25
21
 64.68
31
 50.84
0
LINE
8
CentreLine
10
112.56
20
 64.17
30
 50.53
11
111.83
21
 64.92
31
 50.22
0
LINE
8
CentreLine
10
112.56
20
 64.17
30
 50.53
11
110.76
21
 64.80
31
 50.19
0
LINE
8
CentreLine
10
112.56
20
 64.17
30
 50.53
11
110.45
21
 64.04
31
 50.10
0
LINE
8
CentreLine
10
112.56
20
 64.17
30
 50.53
11
110.96
21
 63.46
31
 50.23
0
LINE
8
CentreLine
10
112.56
20
 64.17
30
 50.53
11
111.67
21
 63.23
31
 50.43
0
LINE
8
CentreLine
10
112.56
20
 64.17
30
 50.53
11
112.59
21
 63.71
31
 50.01
0
LINE
8
CentreLine
10
112.56
20
 64.17
30
 50.53
11
112.02
21
 63.05
31
 50.53
0
LINE
8
CentreLine
10
114.62
20
 63.84
30
 51.08
11
112.03
21
 64.26
31
 50.40
0
LINE
8
CentreLine
10
114.62
20
 63.84
30
 51.08
11
115.06
21
 63.25
31
 51.84
0
LINE
8
CentreLine
10
114.62
20
 63.84
30
 51.08
11
115.61
21
 64.51
31
 50.93
0
LINE
8
CentreLine
10
114.62
20
 63.84
30
 51.08
11
114.80
21
 64.50
31
 49.88
0
LINE
8
CentreLine
10
115.61
20
 63.59
30
 50.28
11
115.86
21
 63.60
31
 53.72
0
LINE
8
CentreLine
10
115.61
20
 63.59
30
 50.28
11
115.77
21
 64.07
31
 51.10
0
LINE
8
CentreLine
10
115.61
20
 63.59
30
 50.28
11
115.59
21
 64.02
31
 49.76
0
LINE
8
CentreLine
10
115.61
20
 63.59
30
 50.28
11
115.92
21
 64.10
31
 50.38
0
LINE
8
CentreLine
10
116.68
20
 63.06
30
 49.63
11
116.66
21
 62.95
31
 49.07
0
LINE
8
CentreLine
10
116.68
20
 63.06
30
 49.63
11
116.34
21
 62.66
31
 49.47
0
LINE
8
CentreLine
10
116.68
20
 63.06
30
 49.63
11
116.87
21
 63.29
31
 49.60
0
LINE
8
CentreLine
10
117.53
20
 61.72
30
 48.96
11
117.38
21
 61.61
31
 49.45
0
LINE
8
CentreLine
10
117.53
20
 61.72
30
 48.96
11
117.20
21
 61.57
31
 48.14
0
LINE
8
CentreLine
10
117.53
20
 61.72
30
 48.96
11
116.88
21
 61.31
31
 48.97
0
LINE
8
CentreLine
10
113.44
20
 63.26
30
 48.56
11
113.86
21
 63.93
31
 49.94
0
LINE
8
CentreLine
10
113.44
20
 63.26
30
 48.56
11
113.24
21
 63.00
31
 49.70
0
LINE
8
CentreLine
10
113.44
20
 63.26
30
 48.56
11
111.79
21
 64.08
31
 50.27
0
LINE
8
CentreLine
10
113.44
20
 63.26
30
 48.56
11
115.66
21
 62.62
31
 50.71
0
LINE
8
CentreLine
10
113.44
20
 63.26
30
 48.56
11
113.97
21
 62.32
31
 48.58
0
LINE
8
CentreLine
10
113.44
20
 63.26
30
 48.56
11
115.55
21
 62.93
31
 48.52
0
LINE
8
CentreLine
10
113.44
20
 63.26
30
 48.56
11
115.11
21
 62.19
31
 48.59
0
LINE
8
CentreLine
10
113.44
20
 63.26
30
 48.56
11
115.43
21
 63.25
31
 48.74
0
LINE
8
CentreLine
10
113.44
20
 63.26
30
 48.56
11
114.54
21
 63.71
31
 48.70
0
LINE
8
CentreLine
10
113.44
20
 63.26
30
 48.56
11
113.90
21
 64.06
31
 48.57
0
LINE
8
CentreLine
10
113.44
20
 63.26
30
 48.56
11
112.56
21
 64.76
31
 48.56
0
LINE
8
CentreLine
10
113.44
20
 63.26
30
 48.56
11
111.63
21
 64.73
31
 48.69
0
LINE
8
CentreLine
10
113.44
20
 63.26
30
 48.56
11
111.99
21
 63.41
31
 48.57
0
LINE
8
CentreLine
10
113.44
20
 63.26
30
 48.56
11
113.02
21
 62.58
31
 48.64
0
LINE
8
CentreLine
10
115.53
20
 62.85
30
 48.44
11
115.38
21
 62.64
31
 48.25
0
LINE
8
CentreLine
10
115.53
20
 62.85
30
 48.44
11
115.80
21
 62.09
31
 50.55
0
LINE
8
CentreLine
10
115.53
20
 62.85
30
 48.44
11
115.08
21
 61.99
31
 48.45
0
LINE
8
CentreLine
10
117.21
20
 61.42
30
 48.39
11
116.86
21
 61.29
31
 49.15
0
LINE
8
CentreLine
10
117.21
20
 61.42
30
 48.39
11
116.79
21
 61.28
31
 47.85
0
LINE
8
CentreLine
10
117.21
20
 61.42
30
 48.39
11
116.47
21
 60.90
31
 48.22
0
LINE
8
CentreLine
10
117.00
20
 60.35
30
 48.24
11
117.20
21
 61.56
31
 48.42
0
LINE
8
CentreLine
10
117.00
20
 60.35
30
 48.24
11
117.21
21
 61.43
31
 48.39
0
LINE
8
CentreLine
10
120.90
20
 57.77
30
 48.59
11
121.35
21
 58.67
31
 48.55
0
LINE
8
CentreLine
10
120.90
20
 57.77
30
 48.59
11
121.55
21
 59.08
31
 48.54
0
LINE
8
CentreLine
10
120.90
20
 57.77
30
 48.59
11
121.55
21
 59.07
31
 48.54
0
LINE
8
CentreLine
10
120.90
20
 57.77
30
 48.59
11
121.76
21
 59.44
31
 48.50
0
LINE
8
CentreLine
10
120.90
20
 57.77
30
 48.59
11
121.55
21
 59.05
31
 48.53
0
LINE
8
CentreLine
10
123.57
20
 54.11
30
 35.34
11
123.35
21
 53.89
31
 35.46
0
LINE
8
CentreLine
10
123.57
20
 54.11
30
 35.34
11
123.62
21
 54.30
31
 35.28
0
LINE
8
CentreLine
10
123.57
20
 54.11
30
 35.34
11
123.62
21
 54.11
31
 35.04
0
LINE
8
CentreLine
10
122.99
20
 53.99
30
 35.20
11
123.39
21
 54.37
31
 35.22
0
LINE
8
CentreLine
10
122.99
20
 53.99
30
 35.20
11
123.07
21
 54.37
31
 35.48
0
LINE
8
CentreLine
10
122.99
20
 53.99
30
 35.20
11
122.99
21
 53.84
31
 35.40
0
LINE
8
CentreLine
10
122.99
20
 53.99
30
 35.20
11
122.93
21
 54.24
31
 35.56
0
LINE
8
CentreLine
10
122.99
20
 53.99
30
 35.20
11
123.08
21
 54.05
31
 34.87
0
LINE
8
CentreLine
10
122.10
20
 54.57
30
 35.05
11
122.13
21
 54.56
31
 35.62
0
LINE
8
CentreLine
10
122.10
20
 54.57
30
 35.05
11
121.97
21
 54.27
31
 34.92
0
LINE
8
CentreLine
10
122.10
20
 54.57
30
 35.05
11
122.05
21
 54.40
31
 35.57
0
LINE
8
CentreLine
10
122.10
20
 54.57
30
 35.05
11
121.96
21
 53.92
31
 35.20
0
LINE
8
CentreLine
10
120.92
20
 54.31
30
 35.15
11
120.93
21
 54.72
31
 35.49
0
LINE
8
CentreLine
10
120.92
20
 54.31
30
 35.15
11
120.94
21
 53.66
31
 34.86
0
LINE
8
CentreLine
10
120.92
20
 54.31
30
 35.15
11
121.08
21
 54.36
31
 34.69
0
LINE
8
CentreLine
10
120.92
20
 54.31
30
 35.15
11
120.78
21
 55.20
31
 35.08
0
LINE
8
CentreLine
10
119.17
20
 55.23
30
 34.36
11
119.79
21
 56.00
31
 35.55
0
LINE
8
CentreLine
10
119.17
20
 55.23
30
 34.36
11
119.20
21
 54.92
31
 35.07
0
LINE
8
CentreLine
10
119.17
20
 55.23
30
 34.36
11
119.10
21
 54.72
31
 33.99
0
LINE
8
CentreLine
10
119.17
20
 55.23
30
 34.36
11
118.72
21
 54.54
31
 34.50
0
LINE
8
CentreLine
10
114.47
20
 56.32
30
 34.04
11
113.31
21
 56.36
31
 33.06
0
LINE
8
CentreLine
10
114.47
20
 56.32
30
 34.04
11
113.88
21
 56.30
31
 33.24
0
LINE
8
CentreLine
10
114.47
20
 56.32
30
 34.04
11
113.39
21
 56.12
31
 32.93
0
LINE
8
CentreLine
10
114.47
20
 56.32
30
 34.04
11
113.43
21
 56.59
31
 32.94
0
LINE
8
CentreLine
10
114.47
20
 56.32
30
 34.04
11
113.35
21
 56.71
31
 33.17
0
LINE
8
CentreLine
10
114.47
20
 56.32
30
 34.04
11
113.49
21
 56.00
31
 33.10
0
LINE
8
CentreLine
10
114.47
20
 56.32
30
 34.04
11
114.64
21
 56.67
31
 33.97
0
LINE
8
CentreLine
10
114.47
20
 56.32
30
 34.04
11
114.61
21
 56.26
31
 33.72
0
LINE
8
CentreLine
10
114.47
20
 56.32
30
 34.04
11
114.74
21
 55.62
31
 33.84
0
LINE
8
CentreLine
10
116.97
20
 56.15
30
 34.88
11
116.48
21
 55.11
31
 34.50
0
LINE
8
CentreLine
10
116.97
20
 56.15
30
 34.88
11
116.89
21
 56.01
31
 34.38
0
LINE
8
CentreLine
10
116.97
20
 56.15
30
 34.88
11
117.04
21
 56.53
31
 34.88
0
LINE
8
CentreLine
10
115.57
20
 56.27
30
 35.45
11
115.68
21
 56.63
31
 35.76
0
LINE
8
CentreLine
10
115.57
20
 56.27
30
 35.45
11
115.29
21
 55.67
31
 34.11
0
LINE
8
CentreLine
10
115.57
20
 56.27
30
 35.45
11
115.70
21
 56.50
31
 34.30
0
LINE
8
CentreLine
10
115.57
20
 56.27
30
 35.45
11
115.96
21
 57.09
31
 35.37
0
LINE
8
CentreLine
10
113.89
20
 57.95
30
 35.82
11
112.66
21
 58.63
31
 36.69
0
LINE
8
CentreLine
10
113.89
20
 57.95
30
 35.82
11
113.86
21
 57.34
31
 35.81
0
LINE
8
CentreLine
10
113.89
20
 57.95
30
 35.82
11
114.21
21
 58.12
31
 35.34
0
LINE
8
CentreLine
10
113.89
20
 57.95
30
 35.82
11
114.23
21
 58.09
31
 36.42
0
LINE
8
CentreLine
10
113.89
20
 57.95
30
 35.82
11
114.47
21
 58.43
31
 35.78
0
LINE
8
CentreLine
10
113.30
20
 58.46
30
 35.42
11
113.57
21
 58.77
31
 35.61
0
LINE
8
CentreLine
10
113.30
20
 58.46
30
 35.42
11
113.42
21
 58.59
31
 35.00
0
LINE
8
CentreLine
10
113.30
20
 58.46
30
 35.42
11
113.56
21
 58.95
31
 35.37
0
LINE
8
CentreLine
10
112.23
20
 59.92
30
 35.65
11
111.82
21
 59.56
31
 35.63
0
LINE
8
CentreLine
10
112.23
20
 59.92
30
 35.65
11
112.46
21
 60.16
31
 35.57
0
LINE
8
CentreLine
10
112.23
20
 59.92
30
 35.65
11
112.13
21
 59.86
31
 35.29
0
LINE
8
CentreLine
10
111.91
20
 60.78
30
 36.12
11
111.55
21
 60.36
31
 37.28
0
LINE
8
CentreLine
10
111.91
20
 60.78
30
 36.12
11
111.72
21
 60.16
31
 35.46
0
LINE
8
CentreLine
10
111.91
20
 60.78
30
 36.12
11
111.24
21
 59.95
31
 36.03
0
LINE
8
CentreLine
10
110.93
20
 60.43
30
 37.11
11
111.37
21
 60.84
31
 37.38
0
LINE
8
CentreLine
10
110.93
20
 60.43
30
 37.11
11
111.01
21
 61.39
31
 36.73
0
LINE
8
CentreLine
10
110.93
20
 60.43
30
 37.11
11
111.07
21
 60.43
31
 36.75
0
LINE
8
CentreLine
10
110.93
20
 60.43
30
 37.11
11
111.06
21
 59.98
31
 36.85
0
LINE
8
CentreLine
10
110.93
20
 60.43
30
 37.11
11
111.33
21
 61.18
31
 37.17
0
LINE
8
CentreLine
10
110.28
20
 61.84
30
 36.98
11
110.11
21
 61.52
31
 37.38
0
LINE
8
CentreLine
10
110.28
20
 61.84
30
 36.98
11
110.09
21
 61.50
31
 36.70
0
LINE
8
CentreLine
10
110.28
20
 61.84
30
 36.98
11
109.65
21
 61.27
31
 37.00
0
LINE
8
CentreLine
10
108.69
20
 62.71
30
 37.21
11
108.44
21
 62.52
31
 37.27
0
LINE
8
CentreLine
10
108.69
20
 62.71
30
 37.21
11
109.19
21
 63.21
31
 37.16
0
LINE
8
CentreLine
10
108.69
20
 62.71
30
 37.21
11
108.83
21
 62.82
31
 36.82
0
LINE
8
CentreLine
10
107.44
20
 63.47
30
 36.82
11
107.80
21
 63.84
31
 36.94
0
LINE
8
CentreLine
10
107.44
20
 63.47
30
 36.82
11
107.57
21
 63.56
31
 36.49
0
LINE
8
CentreLine
10
107.44
20
 63.47
30
 36.82
11
108.02
21
 64.13
31
 36.67
0
LINE
8
CentreLine
10
106.15
20
 64.67
30
 36.70
11
106.38
21
 64.89
31
 36.91
0
LINE
8
CentreLine
10
106.15
20
 64.67
30
 36.70
11
106.18
21
 64.77
31
 36.35
0
LINE
8
CentreLine
10
106.15
20
 64.67
30
 36.70
11
105.96
21
 64.36
31
 36.77
0
LINE
8
CentreLine
10
106.15
20
 64.67
30
 36.70
11
106.62
21
 65.12
31
 36.73
0
LINE
8
CentreLine
10
104.59
20
 66.37
30
 36.20
11
104.39
21
 65.77
31
 36.27
0
LINE
8
CentreLine
10
104.59
20
 66.37
30
 36.20
11
104.80
21
 66.68
31
 35.97
0
LINE
8
CentreLine
10
104.59
20
 66.37
30
 36.20
11
104.73
21
 66.17
31
 35.90
0
LINE
8
CentreLine
10
104.59
20
 66.37
30
 36.20
11
103.94
21
 65.84
31
 36.12
0
LINE
8
CentreLine
10
103.61
20
 66.79
30
 36.10
11
104.41
21
 66.17
31
 35.66
0
LINE
8
CentreLine
10
103.61
20
 66.79
30
 36.10
11
103.35
21
 66.61
31
 35.79
0
LINE
8
CentreLine
10
103.61
20
 66.79
30
 36.10
11
103.86
21
 66.90
31
 36.22
0
LINE
8
CentreLine
10
103.61
20
 66.79
30
 36.10
11
103.73
21
 66.86
31
 35.62
0
LINE
8
CentreLine
10
103.61
20
 66.79
30
 36.10
11
104.00
21
 67.00
31
 36.09
0
LINE
8
CentreLine
10
103.67
20
 67.75
30
 36.34
11
104.06
21
 67.98
31
 36.06
0
LINE
8
CentreLine
10
103.67
20
 67.75
30
 36.34
11
103.51
21
 67.44
31
 36.60
0
LINE
8
CentreLine
10
103.67
20
 67.75
30
 36.34
11
103.79
21
 67.71
31
 35.88
0
LINE
8
CentreLine
10
103.67
20
 67.75
30
 36.34
11
103.27
21
 67.35
31
 36.32
0
LINE
8
CentreLine
10
102.83
20
 68.20
30
 36.33
11
102.67
21
 67.96
31
 36.17
0
LINE
8
CentreLine
10
102.83
20
 68.20
30
 36.33
11
103.32
21
 68.53
31
 36.24
0
LINE
8
CentreLine
10
102.83
20
 68.20
30
 36.33
11
102.97
21
 68.27
31
 35.88
0
LINE
8
CentreLine
10
103.06
20
 69.05
30
 36.18
11
102.71
21
 68.86
31
 36.32
0
LINE
8
CentreLine
10
103.06
20
 69.05
30
 36.18
11
102.73
21
 68.91
31
 35.84
0
LINE
8
CentreLine
10
103.06
20
 69.05
30
 36.18
11
102.13
21
 68.98
31
 36.08
0
LINE
8
CentreLine
10
102.23
20
 69.29
30
 36.38
11
103.37
21
 67.43
31
 36.09
0
LINE
8
CentreLine
10
102.23
20
 69.29
30
 36.38
11
103.08
21
 69.28
31
 35.81
0
LINE
8
CentreLine
10
102.23
20
 69.29
30
 36.38
11
102.44
21
 69.33
31
 35.79
0
LINE
8
CentreLine
10
102.23
20
 69.29
30
 36.38
11
102.77
21
 70.20
31
 35.54
0
LINE
8
CentreLine
10
102.23
20
 69.29
30
 36.38
11
101.99
21
 70.22
31
 36.39
0
LINE
8
CentreLine
10
102.23
20
 69.29
30
 36.38
11
102.91
21
 70.29
31
 36.26
0
LINE
8
CentreLine
10
102.91
20
 69.78
30
 34.48
11
102.19
21
 69.31
31
 36.44
0
LINE
8
CentreLine
10
102.91
20
 69.78
30
 34.48
11
102.21
21
 69.32
31
 36.42
0
LINE
8
CentreLine
10
102.91
20
 69.78
30
 34.48
11
102.23
21
 69.30
31
 36.38
0
LINE
8
CentreLine
10
102.76
20
 69.17
30
 34.50
11
103.20
21
 69.78
31
 30.20
0
LINE
8
CentreLine
10
102.76
20
 69.17
30
 34.50
11
103.25
21
 69.09
31
 33.64
0
LINE
8
CentreLine
10
102.76
20
 69.17
30
 34.50
11
102.24
21
 69.55
31
 34.46
0
LINE
8
CentreLine
10
102.76
20
 69.17
30
 34.50
11
102.57
21
 68.68
31
 33.94
0
LINE
8
CentreLine
10
102.76
20
 69.17
30
 34.50
11
103.02
21
 69.76
31
 34.51
0
LINE
8
CentreLine
10
104.17
20
 68.89
30
 34.15
11
104.08
21
 68.86
31
 34.82
0
LINE
8
CentreLine
10
104.17
20
 68.89
30
 34.15
11
104.17
21
 68.86
31
 33.67
0
LINE
8
CentreLine
10
104.17
20
 68.89
30
 34.15
11
103.99
21
 68.40
31
 34.17
0
LINE
8
CentreLine
10
105.10
20
 68.03
30
 34.15
11
104.11
21
 68.76
31
 33.56
0
LINE
8
CentreLine
10
105.10
20
 68.03
30
 34.15
11
105.92
21
 67.76
31
 33.57
0
LINE
8
CentreLine
10
105.10
20
 68.03
30
 34.15
11
105.12
21
 68.14
31
 34.82
0
LINE
8
CentreLine
10
105.10
20
 68.03
30
 34.15
11
105.16
21
 68.73
31
 34.17
0
LINE
8
CentreLine
10
105.10
20
 68.03
30
 34.15
11
105.21
21
 68.41
31
 34.14
0
LINE
8
CentreLine
10
125.07
20
 54.78
30
 24.66
11
125.06
21
 53.65
31
 25.68
0
LINE
8
CentreLine
10
125.07
20
 54.78
30
 24.66
11
125.51
21
 54.05
31
 25.65
0
LINE
8
CentreLine
10
125.07
20
 54.78
30
 24.66
11
125.90
21
 54.52
31
 25.60
0
LINE
8
CentreLine
10
125.07
20
 54.78
30
 24.66
11
125.93
21
 54.94
31
 25.45
0
LINE
8
CentreLine
10
125.07
20
 54.78
30
 24.66
11
124.94
21
 54.44
31
 24.64
0
LINE
8
CentreLine
10
125.07
20
 54.78
30
 24.66
11
124.78
21
 53.84
31
 25.47
0
LINE
8
CentreLine
10
125.07
20
 54.78
30
 24.66
11
125.01
21
 54.72
31
 25.26
0
LINE
8
CentreLine
10
125.07
20
 54.78
30
 24.66
11
125.28
21
 55.55
31
 25.17
0
LINE
8
CentreLine
10
124.12
20
 55.14
30
 24.85
11
125.50
21
 53.35
31
 25.88
0
LINE
8
CentreLine
10
124.12
20
 55.14
30
 24.85
11
125.01
21
 53.05
31
 25.75
0
LINE
8
CentreLine
10
124.12
20
 55.14
30
 24.85
11
124.70
21
 52.89
31
 25.70
0
LINE
8
CentreLine
10
124.12
20
 55.14
30
 24.85
11
124.15
21
 52.98
31
 25.59
0
LINE
8
CentreLine
10
124.12
20
 55.14
30
 24.85
11
124.08
21
 54.94
31
 23.86
0
LINE
8
CentreLine
10
124.12
20
 55.14
30
 24.85
11
124.08
21
 54.74
31
 25.15
0
LINE
8
CentreLine
10
124.12
20
 55.14
30
 24.85
11
123.82
21
 54.11
31
 24.94
0
LINE
8
CentreLine
10
123.49
20
 55.05
30
 23.79
11
123.09
21
 54.35
31
 24.11
0
LINE
8
CentreLine
10
123.49
20
 55.05
30
 23.79
11
123.20
21
 55.19
31
 24.37
0
LINE
8
CentreLine
10
123.49
20
 55.05
30
 23.79
11
123.48
21
 55.79
31
 24.41
0
LINE
8
CentreLine
10
122.44
20
 55.12
30
 23.14
11
122.45
21
 55.36
31
 22.96
0
LINE
8
CentreLine
10
122.44
20
 55.12
30
 23.14
11
122.43
21
 55.00
31
 23.31
0
LINE
8
CentreLine
10
122.44
20
 55.12
30
 23.14
11
122.42
21
 55.32
31
 23.83
0
LINE
8
CentreLine
10
122.44
20
 55.12
30
 23.14
11
122.67
21
 56.12
31
 23.51
0
LINE
8
CentreLine
10
121.20
20
 56.75
30
 23.11
11
121.46
21
 56.97
31
 23.01
0
LINE
8
CentreLine
10
121.20
20
 56.75
30
 23.11
11
121.14
21
 56.13
31
 23.32
0
LINE
8
CentreLine
10
121.20
20
 56.75
30
 23.11
11
121.04
21
 56.26
31
 22.52
0
LINE
8
CentreLine
10
121.20
20
 56.75
30
 23.11
11
120.77
21
 56.01
31
 22.89
0
LINE
8
CentreLine
10
119.18
20
 56.76
30
 23.01
11
119.19
21
 56.50
31
 23.33
0
LINE
8
CentreLine
10
119.18
20
 56.76
30
 23.01
11
119.37
21
 57.15
31
 23.33
0
LINE
8
CentreLine
10
119.18
20
 56.76
30
 23.01
11
119.39
21
 58.87
31
 22.64
0
LINE
8
CentreLine
10
119.18
20
 56.76
30
 23.01
11
119.48
21
 57.98
31
 23.25
0
LINE
8
CentreLine
10
118.24
20
 58.10
30
 23.05
11
118.36
21
 57.76
31
 23.71
0
LINE
8
CentreLine
10
118.24
20
 58.10
30
 23.05
11
118.18
21
 57.45
31
 22.47
0
LINE
8
CentreLine
10
118.24
20
 58.10
30
 23.05
11
117.85
21
 57.32
31
 23.17
0
LINE
8
CentreLine
10
116.70
20
 57.86
30
 23.06
11
116.89
21
 58.29
31
 22.37
0
LINE
8
CentreLine
10
116.70
20
 57.86
30
 23.06
11
116.95
21
 58.18
31
 23.66
0
LINE
8
CentreLine
10
116.70
20
 57.86
30
 23.06
11
117.14
21
 58.87
31
 23.07
0
LINE
8
CentreLine
10
113.07
20
 61.20
30
 23.22
11
115.35
21
 60.09
31
 22.44
0
LINE
8
CentreLine
10
113.07
20
 61.20
30
 23.22
11
112.85
21
 60.84
31
 22.71
0
LINE
8
CentreLine
10
113.07
20
 61.20
30
 23.22
11
113.07
21
 61.39
31
 22.62
0
LINE
8
CentreLine
10
113.07
20
 61.20
30
 23.22
11
113.62
21
 61.54
31
 24.16
0
LINE
8
CentreLine
10
113.07
20
 61.20
30
 23.22
11
114.36
21
 62.76
31
 24.03
0
LINE
8
CentreLine
10
111.71
20
 62.76
30
 23.49
11
111.72
21
 61.99
31
 22.91
0
LINE
8
CentreLine
10
111.71
20
 62.76
30
 23.49
11
112.04
21
 63.02
31
 22.14
0
LINE
8
CentreLine
10
111.71
20
 62.76
30
 23.49
11
112.12
21
 63.18
31
 24.55
0
LINE
8
CentreLine
10
111.71
20
 62.76
30
 23.49
11
112.48
21
 63.54
31
 23.54
0
LINE
8
CentreLine
10
110.59
20
 63.75
30
 22.79
11
108.61
21
 64.42
31
 23.94
0
LINE
8
CentreLine
10
110.59
20
 63.75
30
 22.79
11
108.53
21
 63.87
31
 23.11
0
LINE
8
CentreLine
10
110.59
20
 63.75
30
 22.79
11
110.69
21
 63.53
31
 22.16
0
LINE
8
CentreLine
10
110.59
20
 63.75
30
 22.79
11
111.09
21
 64.41
31
 23.63
0
LINE
8
CentreLine
10
110.59
20
 63.75
30
 22.79
11
110.52
21
 63.13
31
 22.88
0
LINE
8
CentreLine
10
108.58
20
 64.47
30
 24.17
11
108.67
21
 64.63
31
 25.09
0
LINE
8
CentreLine
10
108.58
20
 64.47
30
 24.17
11
108.48
21
 63.98
31
 24.31
0
LINE
8
CentreLine
10
108.58
20
 64.47
30
 24.17
11
109.05
21
 65.20
31
 24.70
0
LINE
8
CentreLine
10
107.56
20
 65.12
30
 24.27
11
107.98
21
 65.52
31
 24.78
0
LINE
8
CentreLine
10
107.56
20
 65.12
30
 24.27
11
107.68
21
 65.17
31
 24.98
0
LINE
8
CentreLine
10
107.56
20
 65.12
30
 24.27
11
107.41
21
 64.25
31
 22.19
0
LINE
8
CentreLine
10
107.56
20
 65.12
30
 24.27
11
107.51
21
 64.74
31
 23.04
0
LINE
8
CentreLine
10
107.56
20
 65.12
30
 24.27
11
107.36
21
 64.51
31
 24.39
0
LINE
8
CentreLine
10
105.97
20
 65.91
30
 24.18
11
104.48
21
 66.22
31
 24.16
0
LINE
8
CentreLine
10
105.97
20
 65.91
30
 24.18
11
106.16
21
 64.92
31
 23.97
0
LINE
8
CentreLine
10
105.97
20
 65.91
30
 24.18
11
105.89
21
 65.90
31
 23.89
0
LINE
8
CentreLine
10
105.97
20
 65.91
30
 24.18
11
106.05
21
 65.75
31
 24.61
0
LINE
8
CentreLine
10
105.97
20
 65.91
30
 24.18
11
104.90
21
 65.68
31
 24.18
0
LINE
8
CentreLine
10
105.38
20
 64.83
30
 24.66
11
105.54
21
 64.79
31
 24.40
0
LINE
8
CentreLine
10
105.38
20
 64.83
30
 24.66
11
105.16
21
 64.87
31
 24.51
0
LINE
8
CentreLine
10
105.38
20
 64.83
30
 24.66
11
105.35
21
 64.84
31
 24.27
0
LINE
8
CentreLine
10
 50.87
20
 77.42
30
  0.11
11
 50.00
21
 78.15
31
  0.00
0
LINE
8
CentreLine
10
 51.87
20
 77.94
30
  0.95
11
 51.09
21
 78.13
31
  0.34
0
LINE
8
CentreLine
10
 51.87
20
 77.94
30
  0.95
11
 51.42
21
 77.57
31
  0.63
0
LINE
8
CentreLine
10
 51.87
20
 77.94
30
  0.95
11
 51.76
21
 77.75
31
  0.67
0
LINE
8
CentreLine
10
 51.87
20
 77.94
30
  0.95
11
 51.52
21
 77.97
31
  1.14
0
LINE
8
CentreLine
10
 51.87
20
 77.94
30
  0.95
11
 51.51
21
 78.52
31
  0.98
0
LINE
8
CentreLine
10
 51.87
20
 77.94
30
  0.95
11
 51.80
21
 77.30
31
  0.93
0
LINE
8
CentreLine
10
 52.25
20
 78.42
30
  1.50
11
 52.23
21
 77.57
31
  1.53
0
LINE
8
CentreLine
10
 52.25
20
 78.42
30
  1.50
11
 51.90
21
 78.15
31
  1.32
0
LINE
8
CentreLine
10
 52.25
20
 78.42
30
  1.50
11
 51.66
21
 78.43
31
  1.26
0
LINE
8
CentreLine
10
 52.25
20
 78.42
30
  1.50
11
 52.64
21
 78.01
31
  1.57
0
LINE
8
CentreLine
10
 52.82
20
 76.40
30
  1.19
11
 52.55
21
 76.18
31
  0.85
0
LINE
8
CentreLine
10
 52.82
20
 76.40
30
  1.19
11
 53.14
21
 76.83
31
  1.62
0
LINE
8
CentreLine
10
 52.82
20
 76.40
30
  1.19
11
 52.80
21
 76.56
31
  0.80
0
LINE
8
CentreLine
10
 52.82
20
 76.40
30
  1.19
11
 53.22
21
 76.62
31
  1.22
0
LINE
8
CentreLine
10
 53.77
20
 75.32
30
  1.00
11
 52.80
21
 76.33
31
  1.17
0
LINE
8
CentreLine
10
 53.77
20
 75.32
30
  1.00
11
 52.04
21
 76.03
31
  0.09
0
LINE
8
CentreLine
10
 53.77
20
 75.32
30
  1.00
11
 52.47
21
 76.02
31
  0.61
0
LINE
8
CentreLine
10
 53.77
20
 75.32
30
  1.00
11
 52.29
21
 75.63
31
  0.58
0
LINE
8
CentreLine
10
 53.77
20
 75.32
30
  1.00
11
 52.82
21
 75.20
31
  0.94
0
LINE
8
CentreLine
10
 53.77
20
 75.32
30
  1.00
11
 53.94
21
 75.65
31
  1.29
0
LINE
8
CentreLine
10
 53.77
20
 75.32
30
  1.00
11
 53.72
21
 75.31
31
  1.89
0
LINE
8
CentreLine
10
 53.77
20
 75.32
30
  1.00
11
 53.43
21
 74.75
31
  1.33
0
LINE
8
CentreLine
10
 55.98
20
 74.38
30
  2.53
11
 58.50
21
 72.24
31
  2.33
0
LINE
8
CentreLine
10
 55.98
20
 74.38
30
  2.53
11
 57.27
21
 74.10
31
  2.52
0
LINE
8
CentreLine
10
 55.98
20
 74.38
30
  2.53
11
 57.18
21
 73.53
31
  2.56
0
LINE
8
CentreLine
10
 55.98
20
 74.38
30
  2.53
11
 57.27
21
 72.60
31
  1.98
0
LINE
8
CentreLine
10
 55.98
20
 74.38
30
  2.53
11
 56.10
21
 72.95
31
  1.30
0
LINE
8
CentreLine
10
 55.98
20
 74.38
30
  2.53
11
 55.36
21
 73.57
31
  1.28
0
LINE
8
CentreLine
10
 55.98
20
 74.38
30
  2.53
11
 56.15
21
 74.69
31
  2.09
0
LINE
8
CentreLine
10
 55.98
20
 74.38
30
  2.53
11
 56.14
21
 74.33
31
  1.54
0
LINE
8
CentreLine
10
 57.76
20
 74.48
30
  2.60
11
 57.84
21
 74.46
31
  2.28
0
LINE
8
CentreLine
10
 57.76
20
 74.48
30
  2.60
11
 57.79
21
 74.80
31
  2.47
0
LINE
8
CentreLine
10
 57.76
20
 74.48
30
  2.60
11
 57.61
21
 74.47
31
  3.29
0
LINE
8
CentreLine
10
 57.76
20
 74.48
30
  2.60
11
 57.80
21
 74.13
31
  2.66
0
LINE
8
CentreLine
10
 59.85
20
 74.57
30
  4.28
11
 59.87
21
 74.69
31
  3.76
0
LINE
8
CentreLine
10
 59.85
20
 74.57
30
  4.28
11
 59.55
21
 75.27
31
  4.19
0
LINE
8
CentreLine
10
 59.85
20
 74.57
30
  4.28
11
 59.92
21
 74.21
31
  4.22
0
LINE
8
CentreLine
10
 60.95
20
 75.05
30
  5.66
11
 59.89
21
 74.59
31
  4.33
0
LINE
8
CentreLine
10
 60.95
20
 75.05
30
  5.66
11
 59.85
21
 74.57
31
  4.28
0
LINE
8
CentreLine
10
 60.95
20
 75.05
30
  5.66
11
 61.06
21
 75.21
31
  4.63
0
LINE
8
CentreLine
10
 60.95
20
 75.05
30
  5.66
11
 60.49
21
 74.99
31
  5.61
0
LINE
8
CentreLine
10
 60.95
20
 75.05
30
  5.66
11
 59.95
21
 75.52
31
  5.18
0
LINE
8
CentreLine
10
 60.95
20
 75.05
30
  5.66
11
 61.13
21
 74.86
31
  5.52
0
LINE
8
CentreLine
10
 60.12
20
 75.33
30
  5.08
11
 59.99
21
 75.37
31
  5.72
0
LINE
8
CentreLine
10
 60.12
20
 75.33
30
  5.08
11
 60.11
21
 75.20
31
  4.68
0
LINE
8
CentreLine
10
 60.12
20
 75.33
30
  5.08
11
 59.72
21
 75.68
31
  5.34
0
LINE
8
CentreLine
10
 60.12
20
 75.33
30
  5.08
11
 60.37
21
 74.68
31
  5.24
0
LINE
8
CentreLine
10
 59.58
20
 76.52
30
  5.62
11
 59.79
21
 76.73
31
  5.61
0
LINE
8
CentreLine
10
 59.58
20
 76.52
30
  5.62
11
 59.70
21
 76.37
31
  5.93
0
LINE
8
CentreLine
10
 59.58
20
 76.52
30
  5.62
11
 59.42
21
 76.11
31
  5.88
0
LINE
8
CentreLine
10
 60.95
20
 75.05
30
  5.66
11
 60.92
21
 75.93
31
  6.22
0
LINE
8
CentreLine
10
 60.95
20
 75.05
30
  5.66
11
 60.61
21
 75.45
31
  4.86
0
LINE
8
CentreLine
10
 60.95
20
 75.05
30
  5.66
11
 61.25
21
 76.16
31
  5.65
0
LINE
8
CentreLine
10
 61.46
20
 75.17
30
  5.80
11
 61.33
21
 75.23
31
  4.92
0
LINE
8
CentreLine
10
 61.46
20
 75.17
30
  5.80
11
 61.69
21
 75.85
31
  5.79
0
LINE
8
CentreLine
10
 61.46
20
 75.17
30
  5.80
11
 61.37
21
 74.74
31
  5.47
0
LINE
8
CentreLine
10
 61.46
20
 75.17
30
  5.80
11
 61.70
21
 75.69
31
  5.44
0
LINE
8
CentreLine
10
 61.46
20
 75.17
30
  5.80
11
 61.54
21
 75.12
31
  4.96
0
LINE
8
CentreLine
10
 63.18
20
 74.69
30
  6.16
11
 61.74
21
 74.47
31
  5.22
0
LINE
8
CentreLine
10
 63.18
20
 74.69
30
  6.16
11
 62.48
21
 73.97
31
  5.63
0
LINE
8
CentreLine
10
 63.18
20
 74.69
30
  6.16
11
 63.59
21
 75.71
31
  5.84
0
LINE
8
CentreLine
10
 63.18
20
 74.69
30
  6.16
11
 62.95
21
 74.70
31
  5.17
0
LINE
8
CentreLine
10
 65.38
20
 73.85
30
  6.23
11
 64.44
21
 75.23
31
  7.32
0
LINE
8
CentreLine
10
 65.38
20
 73.85
30
  6.23
11
 63.96
21
 75.13
31
  5.90
0
LINE
8
CentreLine
10
 65.38
20
 73.85
30
  6.23
11
 62.97
21
 73.38
31
  5.73
0
LINE
8
CentreLine
10
 65.38
20
 73.85
30
  6.23
11
 63.12
21
 72.62
31
  5.92
0
LINE
8
CentreLine
10
 65.38
20
 73.85
30
  6.23
11
 63.85
21
 71.85
31
  5.87
0
LINE
8
CentreLine
10
 65.38
20
 73.85
30
  6.23
11
 64.03
21
 70.74
31
  5.67
0
LINE
8
CentreLine
10
 65.38
20
 73.85
30
  6.23
11
 64.62
21
 70.88
31
  5.77
0
LINE
8
CentreLine
10
 65.38
20
 73.85
30
  6.23
11
 65.56
21
 70.85
31
  5.87
0
LINE
8
CentreLine
10
 65.38
20
 73.85
30
  6.23
11
 65.45
21
 74.85
31
  6.26
0
LINE
8
CentreLine
10
 65.38
20
 73.85
30
  6.23
11
 65.33
21
 73.70
31
  7.29
0
LINE
8
CentreLine
10
 65.38
20
 73.85
30
  6.23
11
 64.82
21
 71.05
31
  6.39
0
LINE
8
CentreLine
10
 66.41
20
 74.80
30
  7.47
11
 65.23
21
 73.69
31
  6.11
0
LINE
8
CentreLine
10
 66.41
20
 74.80
30
  7.47
11
 65.90
21
 74.08
31
  8.69
0
LINE
8
CentreLine
10
 66.41
20
 74.80
30
  7.47
11
 65.73
21
 73.02
31
  5.76
0
LINE
8
CentreLine
10
 66.41
20
 74.80
30
  7.47
11
 65.74
21
 71.88
31
  7.38
0
LINE
8
CentreLine
10
 68.13
20
 72.39
30
  7.13
11
 68.99
21
 72.33
31
  9.51
0
LINE
8
CentreLine
10
 68.13
20
 72.39
30
  7.13
11
 68.45
21
 71.51
31
  9.53
0
LINE
8
CentreLine
10
 68.13
20
 72.39
30
  7.13
11
 69.01
21
 71.66
31
 10.58
0
LINE
8
CentreLine
10
 68.13
20
 72.39
30
  7.13
11
 69.84
21
 71.22
31
 10.80
0
LINE
8
CentreLine
10
 68.13
20
 72.39
30
  7.13
11
 71.14
21
 70.96
31
 10.33
0
LINE
8
CentreLine
10
 68.13
20
 72.39
30
  7.13
11
 68.03
21
 74.31
31
  8.73
0
LINE
8
CentreLine
10
 68.13
20
 72.39
30
  7.13
11
 68.19
21
 74.31
31
  7.77
0
LINE
8
CentreLine
10
 68.13
20
 72.39
30
  7.13
11
 67.85
21
 72.33
31
  9.38
0
LINE
8
CentreLine
10
 68.13
20
 72.39
30
  7.13
11
 67.78
21
 71.79
31
  9.25
0
LINE
8
CentreLine
10
 68.13
20
 72.39
30
  7.13
11
 67.75
21
 70.78
31
  8.55
0
LINE
8
CentreLine
10
 68.13
20
 72.39
30
  7.13
11
 67.79
21
 70.57
31
  7.22
0
LINE
8
CentreLine
10
 71.96
20
 72.40
30
  9.15
11
 71.45
21
 72.00
31
  8.53
0
LINE
8
CentreLine
10
 71.96
20
 72.40
30
  9.15
11
 71.66
21
 72.14
31
 10.45
0
LINE
8
CentreLine
10
 71.96
20
 72.40
30
  9.15
11
 72.04
21
 73.15
31
  9.55
0
LINE
8
CentreLine
10
 71.96
20
 72.40
30
  9.15
11
 71.72
21
 71.76
31
  9.23
0
LINE
8
CentreLine
10
 75.84
20
 70.29
30
 11.10
11
 75.71
21
 70.46
31
  9.71
0
LINE
8
CentreLine
10
 75.84
20
 70.29
30
 11.10
11
 74.76
21
 68.52
31
  9.90
0
LINE
8
CentreLine
10
 75.84
20
 70.29
30
 11.10
11
 75.70
21
 72.42
31
 10.33
0
LINE
8
CentreLine
10
 75.84
20
 70.29
30
 11.10
11
 75.99
21
 70.07
31
  9.65
0
LINE
8
CentreLine
10
 75.84
20
 70.29
30
 11.10
11
 75.87
21
 69.21
31
 10.47
0
LINE
8
CentreLine
10
 75.84
20
 70.29
30
 11.10
11
 77.05
21
 72.11
31
 10.23
0
LINE
8
CentreLine
10
 79.13
20
 69.03
30
 11.94
11
 79.47
21
 69.05
31
 11.16
0
LINE
8
CentreLine
10
 79.13
20
 69.03
30
 11.94
11
 79.27
21
 69.30
31
 11.98
0
LINE
8
CentreLine
10
 79.13
20
 69.03
30
 11.94
11
 79.12
21
 69.29
31
 13.46
0
LINE
8
CentreLine
10
 81.13
20
 67.51
30
 13.16
11
 81.01
21
 67.59
31
 12.10
0
LINE
8
CentreLine
10
 81.13
20
 67.51
30
 13.16
11
 80.97
21
 67.71
31
 14.11
0
LINE
8
CentreLine
10
 81.13
20
 67.51
30
 13.16
11
 81.19
21
 67.82
31
 13.16
0
LINE
8
CentreLine
10
 82.07
20
 67.51
30
 13.34
11
 81.78
21
 67.63
31
 14.65
0
LINE
8
CentreLine
10
 82.07
20
 67.51
30
 13.34
11
 81.87
21
 67.78
31
 12.38
0
LINE
8
CentreLine
10
 82.07
20
 67.51
30
 13.34
11
 81.94
21
 67.93
31
 13.44
0
LINE
8
CentreLine
10
 82.56
20
 68.26
30
 14.02
11
 83.20
21
 68.68
31
 13.38
0
LINE
8
CentreLine
10
 82.56
20
 68.26
30
 14.02
11
 82.44
21
 67.59
31
 14.96
0
LINE
8
CentreLine
10
 82.56
20
 68.26
30
 14.02
11
 82.68
21
 67.66
31
 13.98
0
LINE
8
CentreLine
10
 82.56
20
 68.26
30
 14.02
11
 82.72
21
 68.11
31
 13.05
0
LINE
8
CentreLine
10
 83.46
20
 67.12
30
 14.97
11
 83.56
21
 67.43
31
 15.60
0
LINE
8
CentreLine
10
 83.46
20
 67.12
30
 14.97
11
 83.72
21
 67.25
31
 13.58
0
LINE
8
CentreLine
10
 83.46
20
 67.12
30
 14.97
11
 83.75
21
 67.53
31
 14.91
0
LINE
8
CentreLine
10
 84.63
20
 66.80
30
 14.93
11
 84.63
21
 66.76
31
 14.10
0
LINE
8
CentreLine
10
 84.63
20
 66.80
30
 14.93
11
 84.38
21
 66.76
31
 16.00
0
LINE
8
CentreLine
10
 84.63
20
 66.80
30
 14.93
11
 84.37
21
 66.43
31
 14.98
0
LINE
8
CentreLine
10
 85.57
20
 65.46
30
 15.43
11
 85.60
21
 65.67
31
 14.57
0
LINE
8
CentreLine
10
 85.57
20
 65.46
30
 15.43
11
 85.48
21
 65.57
31
 16.58
0
LINE
8
CentreLine
10
 85.57
20
 65.46
30
 15.43
11
 85.74
21
 65.79
31
 15.39
0
LINE
8
CentreLine
10
 90.19
20
 63.93
30
 16.65
11
 90.01
21
 63.98
31
 16.18
0
LINE
8
CentreLine
10
 90.19
20
 63.93
30
 16.65
11
 89.75
21
 63.90
31
 17.65
0
LINE
8
CentreLine
10
 90.19
20
 63.93
30
 16.65
11
 89.74
21
 64.38
31
 16.65
0
LINE
8
CentreLine
10
 90.15
20
 65.03
30
 17.27
11
 90.57
21
 65.10
31
 17.87
0
LINE
8
CentreLine
10
 90.15
20
 65.03
30
 17.27
11
 90.66
21
 64.22
31
 17.17
0
LINE
8
CentreLine
10
 90.15
20
 65.03
30
 17.27
11
 90.22
21
 65.57
31
 17.26
0
LINE
8
CentreLine
10
 90.15
20
 65.03
30
 17.27
11
 90.46
21
 65.64
31
 16.77
0
LINE
8
CentreLine
10
 92.73
20
 65.05
30
 19.06
11
 89.74
21
 65.03
31
 16.98
0
LINE
8
CentreLine
10
 92.73
20
 65.05
30
 19.06
11
 89.78
21
 65.03
31
 17.01
0
LINE
8
CentreLine
10
 92.73
20
 65.05
30
 19.06
11
 90.16
21
 65.04
31
 17.27
0
LINE
8
CentreLine
10
 92.73
20
 65.05
30
 19.06
11
 93.07
21
 63.56
31
 19.18
0
LINE
8
CentreLine
10
 92.73
20
 65.05
30
 19.06
11
 92.80
21
 64.77
31
 19.67
0
LINE
8
CentreLine
10
 92.73
20
 65.05
30
 19.06
11
 93.11
21
 65.56
31
 18.62
0
LINE
8
CentreLine
10
 92.73
20
 65.05
30
 19.06
11
 92.77
21
 64.94
31
 17.97
0
LINE
8
CentreLine
10
 92.73
20
 65.05
30
 19.06
11
 92.71
21
 64.03
31
 18.57
0
LINE
8
CentreLine
10
 95.13
20
 64.14
30
 19.77
11
 95.10
21
 64.26
31
 20.33
0
LINE
8
CentreLine
10
 95.13
20
 64.14
30
 19.77
11
 95.11
21
 64.56
31
 18.70
0
LINE
8
CentreLine
10
 95.13
20
 64.14
30
 19.77
11
 95.17
21
 64.60
31
 19.75
0
LINE
8
CentreLine
10
 96.70
20
 65.02
30
 20.69
11
 98.85
21
 64.75
31
 22.23
0
LINE
8
CentreLine
10
 96.70
20
 65.02
30
 20.69
11
 96.80
21
 65.04
31
 21.28
0
LINE
8
CentreLine
10
 96.70
20
 65.02
30
 20.69
11
 96.65
21
 64.64
31
 19.51
0
LINE
8
CentreLine
10
 96.70
20
 65.02
30
 20.69
11
 96.76
21
 64.54
31
 20.73
0
LINE
8
CentreLine
10
 97.94
20
 64.55
30
 21.67
11
 98.12
21
 65.18
31
 21.66
0
LINE
8
CentreLine
10
 97.94
20
 64.55
30
 21.67
11
 98.05
21
 64.96
31
 22.40
0
LINE
8
CentreLine
10
 97.94
20
 64.55
30
 21.67
11
 98.02
21
 64.11
31
 21.41
0
LINE
8
CentreLine
10
 97.94
20
 64.55
30
 21.67
11
 98.11
21
 64.61
31
 20.91
0
LINE
8
CentreLine
10
102.00
20
 63.52
30
 22.67
11
 97.88
21
 64.57
31
 21.65
0
LINE
8
CentreLine
10
102.00
20
 63.52
30
 22.67
11
102.01
21
 63.80
31
 23.31
0
LINE
8
CentreLine
10
102.00
20
 63.52
30
 22.67
11
101.73
21
 63.91
31
 21.66
0
LINE
8
CentreLine
10
102.00
20
 63.52
30
 22.67
11
102.01
21
 64.21
31
 22.57
0
LINE
8
CentreLine
10
101.93
20
 65.11
30
 24.09
11
102.26
21
 64.79
31
 22.99
0
LINE
8
CentreLine
10
101.93
20
 65.11
30
 24.09
11
103.52
21
 64.21
31
 22.53
0
LINE
8
CentreLine
10
101.93
20
 65.11
30
 24.09
11
104.85
21
 63.89
31
 23.12
0
LINE
8
CentreLine
10
101.93
20
 65.11
30
 24.09
11
105.99
21
 63.68
31
 24.12
0
LINE
8
CentreLine
10
101.93
20
 65.11
30
 24.09
11
107.02
21
 63.52
31
 24.83
0
LINE
8
CentreLine
10
101.93
20
 65.11
30
 24.09
11
107.96
21
 63.64
31
 25.70
0
LINE
8
CentreLine
10
101.93
20
 65.11
30
 24.09
11
107.89
21
 64.11
31
 26.66
0
LINE
8
CentreLine
10
101.93
20
 65.11
30
 24.09
11
102.30
21
 65.07
31
 23.06
0
LINE
8
CentreLine
10
101.93
20
 65.11
30
 24.09
11
102.25
21
 66.27
31
 23.94
0
LINE
8
CentreLine
10
101.93
20
 65.11
30
 24.09
11
102.27
21
 66.65
31
 24.49
0
LINE
8
CentreLine
10
101.93
20
 65.11
30
 24.09
11
102.55
21
 67.64
31
 26.05
0
LINE
8
CentreLine
10
101.93
20
 65.11
30
 24.09
11
103.05
21
 68.43
31
 29.70
0
LINE
8
CentreLine
10
101.93
20
 65.11
30
 24.09
11
102.88
21
 68.19
31
 28.32
0
LINE
8
CentreLine
10
101.93
20
 65.11
30
 24.09
11
101.28
21
 68.30
31
 26.57
0
LINE
8
CentreLine
10
101.93
20
 65.11
30
 24.09
11
102.49
21
 66.39
31
 24.39
0
LINE
8
CentreLine
10
101.93
20
 65.11
30
 24.09
11
102.07
21
 64.47
31
 24.03
0
LINE
8
CentreLine
10
104.83
20
 67.30
30
 28.96
11
101.92
21
 65.20
31
 24.13
0
LINE
8
CentreLine
10
104.83
20
 67.30
30
 28.96
11
104.76
21
 66.95
31
 27.75
0
LINE
8
CentreLine
10
104.83
20
 67.30
30
 28.96
11
106.50
21
 66.14
31
 29.13
0
LINE
8
CentreLine
10
104.83
20
 67.30
30
 28.96
11
104.66
21
 67.58
31
 31.52
0
LINE
8
CentreLine
10
104.83
20
 67.30
30
 28.96
11
102.29
21
 68.79
31
 33.28
0
LINE
8
CentreLine
10
104.83
20
 67.30
30
 28.96
11
101.67
21
 68.97
31
 32.45
0
LINE
8
CentreLine
10
104.83
20
 67.30
30
 28.96
11
101.70
21
 68.91
31
 31.22
0
LINE
8
CentreLine
10
104.83
20
 67.30
30
 28.96
11
101.37
21
 68.85
31
 30.24
0
LINE
8
CentreLine
10
104.69
20
 67.03
30
 30.39
11
106.22
21
 68.23
31
 28.36
0
LINE
8
CentreLine
10
104.69
20
 67.03
30
 30.39
11
107.25
21
 67.48
31
 30.24
0
LINE
8
CentreLine
10
104.69
20
 67.03
30
 30.39
11
107.14
21
 67.49
31
 31.07
0
LINE
8
CentreLine
10
104.69
20
 67.03
30
 30.39
11
107.44
21
 67.10
31
 32.32
0
LINE
8
CentreLine
10
104.69
20
 67.03
30
 30.39
11
104.84
21
 67.08
31
 34.45
0
LINE
8
CentreLine
10
104.69
20
 67.03
30
 30.39
11
104.78
21
 66.75
31
 30.27
0
LINE
8
CentreLine
10
104.69
20
 67.03
30
 30.39
11
104.76
21
 66.60
31
 27.07
0
LINE
8
CentreLine
10
104.69
20
 67.03
30
 30.39
11
104.83
21
 67.43
31
 30.37
0
LINE
8
CentreLine
10
105.61
20
 66.92
30
 34.10
11
104.63
21
 67.23
31
 27.85
0
LINE
8
CentreLine
10
105.61
20
 66.92
30
 34.10
11
105.61
21
 66.19
31
 27.64
0
LINE
8
CentreLine
10
105.61
20
 66.92
30
 34.10
11
104.27
21
 67.04
31
 33.61
0
LINE
8
CentreLine
10
105.61
20
 66.92
30
 34.10
11
105.45
21
 66.59
31
 34.83
0
LINE
8
CentreLine
10
105.61
20
 66.92
30
 34.10
11
105.30
21
 66.23
31
 34.09
0
LINE
8
CentreLine
10
105.46
20
 67.77
30
 34.65
11
105.65
21
 66.92
31
 34.09
0
LINE
8
CentreLine
10
105.46
20
 67.77
30
 34.65
11
106.39
21
 68.86
31
 32.15
0
LINE
8
CentreLine
10
105.46
20
 67.77
30
 34.65
11
104.36
21
 63.95
31
 34.06
0
LINE
8
CentreLine
10
105.46
20
 67.77
30
 34.65
11
104.15
21
 67.05
31
 30.65
0
LINE
8
CentreLine
10
105.46
20
 67.77
30
 34.65
11
103.88
21
 66.98
31
 30.96
0
LINE
8
CentreLine
10
105.46
20
 67.77
30
 34.65
11
103.98
21
 66.75
31
 32.75
0
LINE
8
CentreLine
10
105.46
20
 67.77
30
 34.65
11
104.57
21
 66.26
31
 33.64
0
LINE
8
CentreLine
10
105.46
20
 67.77
30
 34.65
11
105.30
21
 67.63
31
 34.28
0
LINE
8
CentreLine
10
105.46
20
 67.77
30
 34.65
11
105.82
21
 67.68
31
 33.75
0
LINE
8
CentreLine
10
105.46
20
 67.77
30
 34.65
11
105.64
21
 67.72
31
 34.99
0
LINE
8
CentreLine
10
105.46
20
 67.77
30
 34.65
11
105.79
21
 67.12
31
 34.61
0
LINE
8
CentreLine
10
106.22
20
 67.71
30
 35.06
11
106.55
21
 68.09
31
 34.61
0
LINE
8
CentreLine
10
106.22
20
 67.71
30
 35.06
11
106.19
21
 67.53
31
 34.82
0
LINE
8
CentreLine
10
106.22
20
 67.71
30
 35.06
11
106.22
21
 67.67
31
 33.93
0
LINE
8
CentreLine
10
107.18
20
 67.31
30
 35.05
11
107.13
21
 67.20
31
 34.60
0
LINE
8
CentreLine
10
107.18
20
 67.31
30
 35.05
11
106.96
21
 67.24
31
 35.81
0
LINE
8
CentreLine
10
107.18
20
 67.31
30
 35.05
11
106.75
21
 66.80
31
 35.17
0
LINE
8
CentreLine
10
107.44
20
 66.74
30
 36.43
11
107.59
21
 66.68
31
 37.65
0
LINE
8
CentreLine
10
107.44
20
 66.74
30
 36.43
11
107.55
21
 67.01
31
 36.26
0
LINE
8
CentreLine
10
107.44
20
 66.74
30
 36.43
11
107.88
21
 66.98
31
 35.57
0
LINE
8
CentreLine
10
107.44
20
 66.74
30
 36.43
11
107.41
21
 66.58
31
 36.32
0
LINE
8
CentreLine
10
107.31
20
 66.53
30
 37.33
11
105.30
21
 67.57
31
 38.97
0
LINE
8
CentreLine
10
108.07
20
 66.73
30
 36.75
11
106.56
21
 67.34
31
 35.54
0
LINE
8
CentreLine
10
108.07
20
 66.73
30
 36.75
11
107.07
21
 67.11
31
 35.68
0
LINE
8
CentreLine
10
108.07
20
 66.73
30
 36.75
11
106.72
21
 67.33
31
 35.25
0
LINE
8
CentreLine
10
108.07
20
 66.73
30
 36.75
11
107.04
21
 67.20
31
 37.79
0
LINE
8
CentreLine
10
108.07
20
 66.73
30
 36.75
11
106.61
21
 66.68
31
 37.61
0
LINE
8
CentreLine
10
108.07
20
 66.73
30
 36.75
11
105.62
21
 67.39
31
 38.52
0
LINE
8
CentreLine
10
108.07
20
 66.73
30
 36.75
11
106.33
21
 67.25
31
 37.54
0
LINE
8
CentreLine
10
108.07
20
 66.73
30
 36.75
11
107.09
21
 67.04
31
 36.94
0
LINE
8
CentreLine
10
108.07
20
 66.73
30
 36.75
11
108.05
21
 66.65
31
 37.25
0
LINE
8
CentreLine
10
108.07
20
 66.73
30
 36.75
11
107.44
21
 66.24
31
 36.93
0
LINE
8
CentreLine
10
108.29
20
 66.30
30
 37.06
11
108.29
21
 66.40
31
 37.37
0
LINE
8
CentreLine
10
108.29
20
 66.30
30
 37.06
11
108.33
21
 66.18
31
 36.56
0
LINE
8
CentreLine
10
108.29
20
 66.30
30
 37.06
11
108.01
21
 66.09
31
 36.82
0
LINE
8
CentreLine
10
108.29
20
 66.30
30
 37.06
11
108.47
21
 66.50
31
 37.10
0
LINE
8
CentreLine
10
108.58
20
 66.32
30
 37.49
11
108.63
21
 66.43
31
 37.35
0
LINE
8
CentreLine
10
108.58
20
 66.32
30
 37.49
11
108.64
21
 66.12
31
 36.80
0
LINE
8
CentreLine
10
108.58
20
 66.32
30
 37.49
11
108.45
21
 65.84
31
 37.17
0
LINE
8
CentreLine
10
109.76
20
 65.90
30
 38.28
11
109.84
21
 65.94
31
 37.96
0
LINE
8
CentreLine
10
109.76
20
 65.90
30
 38.28
11
109.82
21
 66.49
31
 38.32
0
LINE
8
CentreLine
10
109.76
20
 65.90
30
 38.28
11
109.43
21
 66.20
31
 40.02
0
LINE
8
CentreLine
10
109.76
20
 65.90
30
 38.28
11
109.39
21
 65.26
31
 38.91
0
LINE
8
CentreLine
10
111.24
20
 65.46
30
 41.01
11
109.13
21
 66.11
31
 37.04
0
LINE
8
CentreLine
10
111.24
20
 65.46
30
 41.01
11
109.78
21
 65.91
31
 38.28
0
LINE
8
CentreLine
10
111.24
20
 65.46
30
 41.01
11
109.78
21
 65.91
31
 38.27
0
LINE
8
CentreLine
10
111.24
20
 65.46
30
 41.01
11
109.12
21
 66.13
31
 37.06
0
LINE
8
CentreLine
10
111.24
20
 65.46
30
 41.01
11
109.78
21
 65.92
31
 38.28
0
LINE
8
CentreLine
10
111.24
20
 65.46
30
 41.01
11
111.31
21
 66.12
31
 40.40
0
LINE
8
CentreLine
10
111.24
20
 65.46
30
 41.01
11
111.05
21
 64.97
31
 40.60
0
LINE
8
CentreLine
10
111.24
20
 65.46
30
 41.01
11
111.11
21
 65.60
31
 39.27
0
LINE
8
CentreLine
10
112.11
20
 64.31
30
 41.12
11
112.24
21
 64.55
31
 40.59
0
LINE
8
CentreLine
10
112.11
20
 64.31
30
 41.12
11
112.22
21
 64.76
31
 41.62
0
LINE
8
CentreLine
10
112.11
20
 64.31
30
 41.12
11
112.16
21
 65.13
31
 41.25
0
LINE
8
CentreLine
10
112.71
20
 64.83
30
 41.05
11
112.10
21
 64.33
31
 41.14
0
LINE
8
CentreLine
10
112.71
20
 64.83
30
 41.05
11
112.11
21
 64.33
31
 41.14
0
LINE
8
CentreLine
10
112.71
20
 64.83
30
 41.05
11
112.12
21
 64.32
31
 41.12
0
LINE
8
CentreLine
10
112.71
20
 64.83
30
 41.05
11
112.15
21
 64.32
31
 41.15
0
LINE
8
CentreLine
10
112.71
20
 64.83
30
 41.05
11
112.15
21
 64.32
31
 41.15
0
LINE
8
CentreLine
10
112.71
20
 64.83
30
 41.05
11
112.16
21
 64.31
31
 41.14
0
LINE
8
CentreLine
10
112.71
20
 64.83
30
 41.05
11
111.18
21
 65.01
31
 40.66
0
LINE
8
CentreLine
10
112.71
20
 64.83
30
 41.05
11
112.58
21
 64.80
31
 41.80
0
LINE
8
CentreLine
10
112.71
20
 64.83
30
 41.05
11
112.63
21
 64.64
31
 40.63
0
LINE
8
CentreLine
10
112.71
20
 64.83
30
 41.05
11
112.56
21
 64.36
31
 41.11
0
LINE
8
CentreLine
10
113.22
20
 64.76
30
 41.89
11
112.54
21
 64.69
31
 41.97
0
LINE
8
CentreLine
10
113.22
20
 64.76
30
 41.89
11
113.11
21
 63.90
31
 41.97
0
LINE
8
CentreLine
10
113.19
20
 64.73
30
 43.86
11
113.53
21
 64.38
31
 43.59
0
LINE
8
CentreLine
10
113.19
20
 64.73
30
 43.86
11
112.80
21
 64.55
31
 44.22
0
LINE
8
CentreLine
10
113.19
20
 64.73
30
 43.86
11
113.41
21
 65.08
31
 43.79
0
LINE
8
CentreLine
10
113.19
20
 64.73
30
 43.86
11
113.81
21
 64.63
31
 43.81
0
LINE
8
CentreLine
10
114.12
20
 63.78
30
 44.97
11
117.54
21
 62.70
31
 45.38
0
LINE
8
CentreLine
10
114.12
20
 63.78
30
 44.97
11
113.41
21
 64.01
31
 43.93
0
LINE
8
CentreLine
10
114.12
20
 63.78
30
 44.97
11
113.48
21
 63.87
31
 45.06
0
LINE
8
CentreLine
10
114.12
20
 63.78
30
 44.97
11
114.08
21
 63.80
31
 46.03
0
LINE
8
CentreLine
10
114.12
20
 63.78
30
 44.97
11
113.15
21
 63.82
31
 44.74
0
LINE
8
CentreLine
10
113.67
20
 62.97
30
 45.15
11
113.93
21
 63.06
31
 45.48
0
LINE
8
CentreLine
10
113.67
20
 62.97
30
 45.15
11
113.21
21
 62.74
31
 44.35
0
LINE
8
CentreLine
10
113.67
20
 62.97
30
 45.15
11
113.75
21
 63.02
31
 44.20
0
LINE
8
CentreLine
10
113.67
20
 62.97
30
 45.15
11
114.09
21
 63.16
31
 44.95
0
LINE
8
CentreLine
10
114.43
20
 61.35
30
 45.19
11
114.63
21
 61.37
31
 45.51
0
LINE
8
CentreLine
10
114.43
20
 61.35
30
 45.19
11
114.62
21
 61.45
31
 44.82
0
LINE
8
CentreLine
10
114.43
20
 61.35
30
 45.19
11
114.87
21
 61.85
31
 45.25
0
LINE
8
CentreLine
10
115.18
20
 60.90
30
 45.29
11
115.14
21
 61.04
31
 45.64
0
LINE
8
CentreLine
10
115.18
20
 60.90
30
 45.29
11
115.38
21
 61.14
31
 45.33
0
LINE
8
CentreLine
10
115.18
20
 60.90
30
 45.29
11
114.93
21
 60.75
31
 45.33
0
LINE
8
CentreLine
10
115.27
20
 60.70
30
 45.59
11
115.23
21
 60.82
31
 45.77
0
LINE
8
CentreLine
10
115.27
20
 60.70
30
 45.59
11
115.41
21
 60.61
31
 45.38
0
LINE
8
CentreLine
10
115.27
20
 60.70
30
 45.59
11
115.65
21
 61.29
31
 45.76
0
LINE
8
CentreLine
10
116.19
20
 60.64
30
 46.47
11
116.74
21
 61.44
31
 47.12
0
LINE
8
CentreLine
10
116.19
20
 60.64
30
 46.47
11
116.56
21
 60.98
31
 46.28
0
LINE
8
CentreLine
10
116.19
20
 60.64
30
 46.47
11
116.37
21
 60.71
31
 45.86
0
LINE
8
CentreLine
10
116.19
20
 60.64
30
 46.47
11
115.86
21
 60.25
31
 46.07
0
LINE
8
CentreLine
10
116.19
20
 60.64
30
 46.47
11
115.45
21
 60.74
31
 46.23
0
LINE
8
CentreLine
10
116.19
20
 60.64
30
 46.47
11
115.43
21
 60.74
31
 46.22
0
LINE
8
CentreLine
10
116.19
20
 60.64
30
 46.47
11
115.02
21
 60.79
31
 46.10
0
LINE
8
CentreLine
10
116.19
20
 60.64
30
 46.47
11
116.07
21
 60.96
31
 47.45
0
LINE
8
CentreLine
10
116.19
20
 60.64
30
 46.47
11
116.60
21
 61.15
31
 46.81
0
LINE
8
CentreLine
10
116.19
20
 60.64
30
 46.47
11
115.98
21
 60.42
31
 45.96
0
LINE
8
CentreLine
10
116.19
20
 60.64
30
 46.47
11
115.87
21
 60.33
31
 46.53
0
LINE
8
CentreLine
10
116.95
20
 60.29
30
 47.72
11
117.09
21
 60.47
31
 47.54
0
LINE
8
CentreLine
10
116.95
20
 60.29
30
 47.72
11
117.01
21
 60.10
31
 47.07
0
LINE
8
CentreLine
10
116.95
20
 60.29
30
 47.72
11
116.90
21
 59.93
31
 47.70
0
LINE
8
CentreLine
10
118.21
20
 59.59
30
 48.25
11
116.62
21
 60.10
31
 46.52
0
LINE
8
CentreLine
10
118.21
20
 59.59
30
 48.25
11
116.72
21
 60.08
31
 46.62
0
LINE
8
CentreLine
10
118.21
20
 59.59
30
 48.25
11
118.66
21
 60.42
31
 49.30
0
LINE
8
CentreLine
10
118.21
20
 59.59
30
 48.25
11
117.93
21
 59.04
31
 47.78
0
LINE
8
CentreLine
10
118.21
20
 59.59
30
 48.25
11
118.39
21
 59.81
31
 47.76
0
LINE
8
CentreLine
10
118.21
20
 59.59
30
 48.25
11
118.85
21
 60.18
31
 48.29
0
LINE
8
CentreLine
10
119.17
20
 58.99
30
 48.52
11
119.39
21
 59.54
31
 49.17
0
LINE
8
CentreLine
10
119.17
20
 58.99
30
 48.52
11
119.27
21
 59.24
31
 47.80
0
LINE
8
CentreLine
10
119.17
20
 58.99
30
 48.52
11
119.62
21
 59.41
31
 48.47
0
LINE
8
CentreLine
10
121.00
20
 58.33
30
 48.72
11
120.88
21
 58.17
31
 49.02
0
LINE
8
CentreLine
10
121.00
20
 58.33
30
 48.72
11
121.07
21
 57.93
31
 47.80
0
LINE
8
CentreLine
10
121.00
20
 58.33
30
 48.72
11
120.82
21
 57.76
31
 48.75
0
LINE
8
CentreLine
10
122.79
20
 56.27
30
 48.16
11
122.85
21
 56.69
31
 49.29
0
LINE
8
CentreLine
10
122.79
20
 56.27
30
 48.16
11
122.88
21
 56.56
31
 47.90
0
LINE
8
CentreLine
10
122.79
20
 56.27
30
 48.16
11
123.27
21
 56.95
31
 48.22
0
LINE
8
CentreLine
10
122.79
20
 56.27
30
 48.16
11
122.54
21
 56.09
31
 48.28
0
LINE
8
CentreLine
10
123.32
20
 55.73
30
 47.88
11
122.65
21
 57.40
31
 56.30
0
LINE
8
CentreLine
10
123.32
20
 55.73
30
 47.88
11
123.31
21
 56.88
31
 48.07
0
LINE
8
CentreLine
10
123.32
20
 55.73
30
 47.88
11
123.52
21
 55.13
31
 48.20
0
LINE
8
CentreLine
10
117.37
20
 50.43
30
 37.22
11
117.33
21
 50.32
31
 37.63
0
LINE
8
CentreLine
10
117.37
20
 50.43
30
 37.22
11
117.44
21
 50.21
31
 36.80
0
LINE
8
CentreLine
10
117.37
20
 50.43
30
 37.22
11
117.43
21
 50.00
31
 37.34
0
LINE
8
CentreLine
10
117.95
20
 50.59
30
 37.50
11
117.70
21
 50.50
31
 38.25
0
LINE
8
CentreLine
10
117.95
20
 50.59
30
 37.50
11
118.04
21
 50.23
31
 36.90
0
LINE
8
CentreLine
10
117.95
20
 50.59
30
 37.50
11
118.09
21
 50.05
31
 37.51
0
LINE
8
CentreLine
10
118.58
20
 50.84
30
 38.23
11
118.74
21
 50.55
31
 37.52
0
LINE
8
CentreLine
10
118.58
20
 50.84
30
 38.23
11
118.70
21
 50.31
31
 38.22
0
LINE
8
CentreLine
10
118.67
20
 50.90
30
 39.65
11
118.99
21
 50.76
31
 37.70
0
LINE
8
CentreLine
10
118.67
20
 50.90
30
 39.65
11
119.42
21
 51.23
31
 39.58
0
LINE
8
CentreLine
10
118.67
20
 50.90
30
 39.65
11
117.92
21
 50.75
31
 39.21
0
LINE
8
CentreLine
10
118.67
20
 50.90
30
 39.65
11
118.50
21
 51.33
31
 39.47
0
LINE
8
CentreLine
10
118.50
20
 51.73
30
 40.57
11
117.36
21
 51.94
31
 42.58
0
LINE
8
CentreLine
10
118.50
20
 51.73
30
 40.57
11
117.19
21
 51.44
31
 41.66
0
LINE
8
CentreLine
10
118.50
20
 51.73
30
 40.57
11
117.74
21
 51.10
31
 40.79
0
LINE
8
CentreLine
10
118.50
20
 51.73
30
 40.57
11
118.77
21
 51.07
31
 40.54
0
LINE
8
CentreLine
10
119.64
20
 52.32
30
 40.85
11
119.72
21
 51.87
31
 39.95
0
LINE
8
CentreLine
10
119.64
20
 52.32
30
 40.85
11
119.89
21
 51.81
31
 40.93
0
LINE
8
CentreLine
10
120.63
20
 52.58
30
 40.66
11
118.32
21
 52.48
31
 43.04
0
LINE
8
CentreLine
10
120.63
20
 52.58
30
 40.66
11
118.76
21
 53.12
31
 43.74
0
LINE
8
CentreLine
10
120.63
20
 52.58
30
 40.66
11
118.12
21
 53.85
31
 45.83
0
LINE
8
CentreLine
10
120.63
20
 52.58
30
 40.66
11
119.29
21
 54.04
31
 45.92
0
LINE
8
CentreLine
10
120.63
20
 52.58
30
 40.66
11
120.62
21
 54.08
31
 45.23
0
LINE
8
CentreLine
10
120.63
20
 52.58
30
 40.66
11
121.54
21
 54.31
31
 45.35
0
LINE
8
CentreLine
10
120.63
20
 52.58
30
 40.66
11
120.61
21
 52.24
31
 39.92
0
LINE
8
CentreLine
10
120.63
20
 52.58
30
 40.66
11
120.74
21
 52.12
31
 40.74
0
LINE
8
CentreLine
10
122.26
20
 52.69
30
 39.81
11
122.53
21
 52.06
31
 38.77
0
LINE
8
CentreLine
10
122.26
20
 52.69
30
 39.81
11
122.41
21
 52.04
31
 39.84
0
LINE
8
CentreLine
10
123.64
20
 52.47
30
 39.89
11
123.40
21
 52.50
31
 38.93
0
LINE
8
CentreLine
10
123.64
20
 52.47
30
 39.89
11
123.49
21
 52.99
31
 39.81
0
LINE
8
CentreLine
10
124.53
20
 53.62
30
 39.89
11
126.97
21
 53.92
31
 39.14
0
LINE
8
CentreLine
10
124.53
20
 53.62
30
 39.89
11
127.04
21
 53.94
31
 39.10
0
LINE
8
CentreLine
10
124.53
20
 53.62
30
 39.89
11
122.77
21
 54.97
31
 47.83
0
LINE
8
CentreLine
10
124.53
20
 53.62
30
 39.89
11
125.75
21
 54.00
31
 40.38
0
LINE
8
CentreLine
10
124.53
20
 53.62
30
 39.89
11
124.98
21
 53.32
31
 40.07
0
LINE
8
CentreLine
10
124.48
20
 55.81
30
 47.78
11
124.32
21
 54.96
31
 47.07
0
LINE
8
CentreLine
10
124.48
20
 55.81
30
 47.78
11
123.18
21
 55.19
31
 47.22
0
LINE
8
CentreLine
10
124.48
20
 55.81
30
 47.78
11
125.72
21
 55.48
31
 46.39
0
LINE
8
CentreLine
10
124.48
20
 55.81
30
 47.78
11
124.61
21
 55.24
31
 47.78
0
LINE
8
CentreLine
10
124.44
20
 56.06
30
 48.67
11
124.49
21
 55.41
31
 48.99
0
LINE
8
CentreLine
10
124.44
20
 56.06
30
 48.67
11
124.34
21
 55.72
31
 47.30
0
LINE
8
CentreLine
10
124.44
20
 56.06
30
 48.67
11
124.56
21
 55.24
31
 48.54
0
LINE
8
CentreLine
10
127.04
20
 55.79
30
 48.29
11
126.67
21
 55.10
31
 47.45
0
LINE
8
CentreLine
10
127.04
20
 55.79
30
 48.29
11
126.23
21
 55.74
31
 47.24
0
LINE
8
CentreLine
10
127.04
20
 55.79
30
 48.29
11
126.98
21
 55.82
31
 48.82
0
LINE
8
CentreLine
10
127.04
20
 55.79
30
 48.29
11
126.89
21
 56.10
31
 48.35
0
LINE
8
CentreLine
10
127.04
20
 55.79
30
 48.29
11
126.78
21
 55.55
31
 47.55
0
LINE
8
CentreLine
10
127.04
20
 55.79
30
 48.29
11
126.70
21
 54.95
31
 48.41
0
LINE
8
CentreLine
10
127.69
20
 54.74
30
 48.49
11
127.76
21
 54.83
31
 47.57
0
LINE
8
CentreLine
10
127.69
20
 54.74
30
 48.49
11
127.37
21
 54.13
31
 47.62
0
LINE
8
CentreLine
10
127.69
20
 54.74
30
 48.49
11
127.93
21
 55.28
31
 48.82
0
LINE
8
CentreLine
10
127.69
20
 54.74
30
 48.49
11
128.23
21
 55.65
31
 48.71
0
LINE
8
CentreLine
10
127.69
20
 54.74
30
 48.49
11
127.95
21
 55.12
31
 48.22
0
LINE
8
CentreLine
10
128.75
20
 55.67
30
 48.44
11
128.62
21
 54.54
31
 47.56
0
LINE
8
CentreLine
10
128.75
20
 55.67
30
 48.44
11
128.62
21
 55.23
31
 47.57
0
LINE
8
CentreLine
10
128.75
20
 55.67
30
 48.44
11
128.83
21
 55.98
31
 48.78
0
LINE
8
CentreLine
10
128.75
20
 55.67
30
 48.44
11
128.76
21
 55.23
31
 48.57
0
LINE
8
CentreLine
10
130.22
20
 55.06
30
 48.50
11
130.05
21
 54.70
31
 48.61
0
LINE
8
CentreLine
10
130.22
20
 55.06
30
 48.50
11
130.28
21
 55.05
31
 48.89
0
LINE
8
CentreLine
10
130.22
20
 55.06
30
 48.50
11
129.92
21
 54.48
31
 47.50
0
LINE
8
CentreLine
10
130.22
20
 55.06
30
 48.50
11
129.83
21
 54.17
31
 47.75
0
LINE
8
CentreLine
10
130.22
20
 55.06
30
 48.50
11
130.00
21
 54.53
31
 48.38
0
LINE
8
CentreLine
10
131.97
20
 54.15
30
 48.40
11
132.05
21
 54.49
31
 47.72
0
LINE
8
CentreLine
10
131.97
20
 54.15
30
 48.40
11
131.88
21
 53.59
31
 47.84
0
LINE
8
CentreLine
10
131.97
20
 54.15
30
 48.40
11
132.00
21
 55.02
31
 49.16
0
LINE
8
CentreLine
10
131.97
20
 54.15
30
 48.40
11
132.12
21
 54.69
31
 48.42
0
LINE
8
CentreLine
10
134.06
20
 54.37
30
 48.53
11
134.15
21
 53.89
31
 47.77
0
LINE
8
CentreLine
10
134.06
20
 54.37
30
 48.53
11
134.05
21
 54.10
31
 48.85
0
LINE
8
CentreLine
10
134.06
20
 54.37
30
 48.53
11
134.11
21
 53.60
31
 48.55
0
LINE
8
CentreLine
10
136.50
20
 53.84
30
 49.00
11
136.47
21
 54.72
31
 50.09
0
LINE
8
CentreLine
10
136.50
20
 53.84
30
 49.00
11
136.50
21
 54.03
31
 48.27
0
LINE
8
CentreLine
10
136.50
20
 53.84
30
 49.00
11
136.66
21
 54.60
31
 49.04
0
LINE
8
CentreLine
10
139.06
20
 54.28
30
 50.07
11
139.11
21
 54.58
31
 49.93
0
LINE
8
CentreLine
10
139.06
20
 54.28
30
 50.07
11
138.93
21
 54.20
31
 49.18
0
LINE
8
CentreLine
10
139.06
20
 54.28
30
 50.07
11
139.07
21
 53.93
31
 50.12
0
LINE
8
CentreLine
10
139.06
20
 54.28
30
 50.07
11
139.03
21
 54.05
31
 50.54
0
LINE
8
CentreLine
10
139.06
20
 54.28
30
 50.07
11
138.82
21
 53.82
31
 49.27
0
LINE
8
CentreLine
10
139.06
20
 54.28
30
 50.07
11
138.86
21
 53.44
31
 49.92
0
LINE
8
CentreLine
10
140.34
20
 54.06
30
 50.69
11
140.43
21
 54.09
31
 51.57
0
LINE
8
CentreLine
10
140.34
20
 54.06
30
 50.69
11
140.45
21
 53.96
31
 50.32
0
LINE
8
CentreLine
10
140.34
20
 54.06
30
 50.69
11
140.25
21
 53.49
31
 50.68
0
LINE
8
CentreLine
10
141.13
20
 53.43
30
 51.50
11
140.55
21
 53.62
31
 50.74
0
LINE
8
CentreLine
10
141.13
20
 53.43
30
 51.50
11
141.00
21
 54.31
31
 51.19
0
LINE
8
CentreLine
10
141.13
20
 53.43
30
 51.50
11
141.15
21
 53.47
31
 51.06
0
LINE
8
CentreLine
10
141.13
20
 53.43
30
 51.50
11
140.91
21
 53.01
31
 51.35
0
LINE
8
CentreLine
10
142.08
20
 54.78
30
 51.98
11
142.13
21
 55.19
31
 56.07
0
LINE
8
CentreLine
10
142.08
20
 54.78
30
 51.98
11
141.55
21
 55.21
31
 53.99
0
LINE
8
CentreLine
10
142.08
20
 54.78
30
 51.98
11
140.61
21
 55.25
31
 54.07
0
LINE
8
CentreLine
10
142.08
20
 54.78
30
 51.98
11
140.31
21
 54.81
31
 53.39
0
LINE
8
CentreLine
10
142.08
20
 54.78
30
 51.98
11
141.25
21
 54.93
31
 52.30
0
LINE
8
CentreLine
10
142.08
20
 54.78
30
 51.98
11
140.38
21
 54.99
31
 52.74
0
LINE
8
CentreLine
10
142.08
20
 54.78
30
 51.98
11
140.26
21
 54.67
31
 53.14
0
LINE
8
CentreLine
10
142.08
20
 54.78
30
 51.98
11
140.37
21
 54.26
31
 52.76
0
LINE
8
CentreLine
10
142.08
20
 54.78
30
 51.98
11
140.97
21
 54.36
31
 52.39
0
LINE
8
CentreLine
10
142.46
20
 53.44
30
 52.32
11
142.98
21
 54.71
31
 52.22
0
LINE
8
CentreLine
10
142.46
20
 53.44
30
 52.32
11
142.67
21
 55.28
31
 52.37
0
LINE
8
CentreLine
10
142.46
20
 53.44
30
 52.32
11
141.37
21
 55.23
31
 52.33
0
LINE
8
CentreLine
10
142.46
20
 53.44
30
 52.32
11
141.83
21
 55.86
31
 52.47
0
LINE
8
CentreLine
10
142.46
20
 53.44
30
 52.32
11
141.26
21
 54.91
31
 52.40
0
LINE
8
CentreLine
10
142.46
20
 53.44
30
 52.32
11
140.80
21
 53.99
31
 52.00
0
LINE
8
CentreLine
10
142.46
20
 53.44
30
 52.32
11
141.07
21
 54.68
31
 52.01
0
LINE
8
CentreLine
10
140.85
20
 56.34
30
 52.60
11
140.91
21
 56.90
31
 53.43
0
LINE
8
CentreLine
10
140.85
20
 56.34
30
 52.60
11
140.76
21
 57.06
31
 53.18
0
LINE
8
CentreLine
10
140.85
20
 56.34
30
 52.60
11
139.95
21
 57.27
31
 53.45
0
LINE
8
CentreLine
10
140.85
20
 56.34
30
 52.60
11
139.83
21
 56.98
31
 53.09
0
LINE
8
CentreLine
10
140.85
20
 56.34
30
 52.60
11
140.13
21
 56.77
31
 52.61
0
LINE
8
CentreLine
10
140.85
20
 56.34
30
 52.60
11
139.79
21
 56.42
31
 52.54
0
LINE
8
CentreLine
10
140.85
20
 56.34
30
 52.60
11
140.00
21
 56.35
31
 52.68
0
LINE
8
CentreLine
10
140.85
20
 56.34
30
 52.60
11
140.99
21
 56.73
31
 52.90
0
LINE
8
CentreLine
10
140.85
20
 56.34
30
 52.60
11
140.88
21
 56.34
31
 53.16
0
LINE
8
CentreLine
10
140.85
20
 56.34
30
 52.60
11
140.49
21
 55.83
31
 52.57
0
LINE
8
CentreLine
10
142.20
20
 56.13
30
 53.00
11
141.74
21
 56.20
31
 52.86
0
LINE
8
CentreLine
10
142.20
20
 56.13
30
 53.00
11
140.85
21
 56.33
31
 52.61
0
LINE
8
CentreLine
10
142.20
20
 56.13
30
 53.00
11
140.85
21
 56.33
31
 52.61
0
LINE
8
CentreLine
10
143.79
20
 61.19
30
 59.25
11
142.30
21
 61.88
31
 62.15
0
LINE
8
CentreLine
10
143.79
20
 61.19
30
 59.25
11
141.90
21
 62.49
31
 65.00
0
LINE
8
CentreLine
10
143.79
20
 61.19
30
 59.25
11
142.98
21
 62.29
31
 63.92
0
LINE
8
CentreLine
10
143.79
20
 61.19
30
 59.25
11
143.65
21
 61.79
31
 61.57
0
LINE
8
CentreLine
10
143.79
20
 61.19
30
 59.25
11
143.17
21
 61.44
31
 60.13
0
LINE
8
CentreLine
10
143.79
20
 61.19
30
 59.25
11
145.26
21
 61.07
31
 58.30
0
LINE
8
CentreLine
10
143.79
20
 61.19
30
 59.25
11
144.33
21
 61.50
31
 59.41
0
LINE
8
CentreLine
10
143.79
20
 61.19
30
 59.25
11
144.49
21
 61.19
31
 59.57
0
LINE
8
CentreLine
10
143.79
20
 61.19
30
 59.25
11
143.80
21
 61.02
31
 59.38
0
LINE
8
CentreLine
10
143.79
20
 61.19
30
 59.25
11
143.77
21
 61.43
31
 59.32
0
LINE
8
CentreLine
10
140.84
20
 61.03
30
 58.41
11
142.25
21
 61.31
31
 59.61
0
LINE
8
CentreLine
10
140.84
20
 61.03
30
 58.41
11
142.09
21
 61.44
31
 60.73
0
LINE
8
CentreLine
10
140.84
20
 61.03
30
 58.41
11
141.02
21
 61.59
31
 61.75
0
LINE
8
CentreLine
10
140.84
20
 61.03
30
 58.41
11
140.69
21
 61.54
31
 61.59
0
LINE
8
CentreLine
10
140.84
20
 61.03
30
 58.41
11
140.36
21
 61.20
31
 60.01
0
LINE
8
CentreLine
10
140.84
20
 61.03
30
 58.41
11
140.06
21
 61.00
31
 59.62
0
LINE
8
CentreLine
10
142.29
20
 61.21
30
 58.15
11
143.24
21
 60.86
31
 58.57
0
LINE
8
CentreLine
10
142.29
20
 61.21
30
 58.15
11
140.98
21
 60.97
31
 58.13
0
LINE
8
CentreLine
10
142.29
20
 61.21
30
 58.15
11
142.28
21
 60.95
31
 58.30
0
LINE
8
CentreLine
10
142.35
20
 60.64
30
 57.90
11
142.12
21
 60.49
31
 57.62
0
LINE
8
CentreLine
10
142.35
20
 60.64
30
 57.90
11
142.71
21
 60.50
31
 58.23
0
LINE
8
CentreLine
10
142.35
20
 60.64
30
 57.90
11
142.34
21
 60.43
31
 58.23
0
LINE
8
CentreLine
10
142.35
20
 60.64
30
 57.90
11
141.35
21
 60.59
31
 57.96
0
LINE
8
CentreLine
10
142.47
20
 59.92
30
 57.54
11
142.14
21
 60.05
31
 57.27
0
LINE
8
CentreLine
10
142.47
20
 59.92
30
 57.54
11
141.35
21
 60.07
31
 57.62
0
LINE
8
CentreLine
10
142.47
20
 59.92
30
 57.54
11
142.29
21
 59.87
31
 57.95
0
LINE
8
CentreLine
10
142.47
20
 59.92
30
 57.54
11
143.36
21
 59.62
31
 57.93
0
LINE
8
CentreLine
10
142.45
20
 58.93
30
 56.84
11
141.66
21
 59.09
31
 56.55
0
LINE
8
CentreLine
10
142.45
20
 58.93
30
 56.84
11
141.67
21
 59.01
31
 57.16
0
LINE
8
CentreLine
10
142.45
20
 58.93
30
 56.84
11
140.61
21
 59.32
31
 56.85
0
LINE
8
CentreLine
10
142.07
20
 57.85
30
 56.02
11
142.22
21
 57.77
31
 56.40
0
LINE
8
CentreLine
10
142.07
20
 57.85
30
 56.02
11
142.12
21
 58.06
31
 55.82
0
LINE
8
CentreLine
10
142.07
20
 57.85
30
 56.02
11
142.69
21
 57.96
31
 56.13
0
LINE
8
CentreLine
10
142.07
20
 57.85
30
 56.02
11
141.68
21
 57.75
31
 56.43
0
LINE
8
CentreLine
10
143.08
20
 57.08
30
 55.11
11
143.28
21
 57.36
31
 55.67
0
LINE
8
CentreLine
10
143.08
20
 57.08
30
 55.11
11
143.25
21
 56.93
31
 55.70
0
LINE
8
CentreLine
10
143.08
20
 57.08
30
 55.11
11
142.89
21
 56.65
31
 55.22
0
LINE
8
CentreLine
10
144.12
20
 56.66
30
 54.87
11
144.21
21
 57.03
31
 55.75
0
LINE
8
CentreLine
10
144.12
20
 56.66
30
 54.87
11
143.19
21
 56.49
31
 55.04
0
LINE
8
CentreLine
10
144.12
20
 56.66
30
 54.87
11
144.68
21
 56.36
31
 55.04
0
LINE
8
CentreLine
10
144.12
20
 56.66
30
 54.87
11
144.13
21
 56.20
31
 54.92
0
LINE
8
CentreLine
10
143.81
20
 55.77
30
 54.18
11
143.83
21
 56.02
31
 53.93
0
LINE
8
CentreLine
10
143.81
20
 55.77
30
 54.18
11
144.00
21
 55.71
31
 54.42
0
LINE
8
CentreLine
10
143.81
20
 55.77
30
 54.18
11
142.94
21
 56.49
31
 54.31
0
LINE
8
CentreLine
10
143.36
20
 55.83
30
 53.50
11
143.32
21
 55.55
31
 53.74
0
LINE
8
CentreLine
10
143.36
20
 55.83
30
 53.50
11
142.99
21
 55.83
31
 53.95
0
LINE
8
CentreLine
10
143.36
20
 55.83
30
 53.50
11
142.84
21
 56.50
31
 54.10
0
LINE
8
CentreLine
10
142.20
20
 56.13
30
 53.00
11
142.27
21
 55.62
31
 52.29
0
LINE
8
CentreLine
10
142.20
20
 56.13
30
 53.00
11
142.12
21
 55.57
31
 53.42
0
LINE
8
CentreLine
10
142.20
20
 56.13
30
 53.00
11
141.26
21
 55.67
31
 52.86
0
LINE
8
CentreLine
10
142.20
20
 56.13
30
 53.00
11
142.83
21
 55.16
31
 52.86
0
LINE
8
CentreLine
10
136.33
20
 60.04
30
 63.62
11
136.29
21
 59.82
31
 63.46
0
LINE
8
CentreLine
10
136.33
20
 60.04
30
 63.62
11
136.27
21
 60.17
31
 63.43
0
LINE
8
CentreLine
10
136.33
20
 60.04
30
 63.62
11
136.42
21
 60.70
31
 63.81
0
LINE
8
CentreLine
10
137.00
20
 60.01
30
 63.85
11
136.46
21
 60.59
31
 63.69
0
LINE
8
CentreLine
10
137.00
20
 60.01
30
 63.85
11
137.20
21
 60.82
31
 63.78
0
LINE
8
CentreLine
10
137.00
20
 60.01
30
 63.85
11
136.87
21
 60.89
31
 63.87
0
LINE
8
CentreLine
10
137.00
20
 60.01
30
 63.85
11
137.24
21
 59.98
31
 64.15
0
LINE
8
CentreLine
10
137.00
20
 60.01
30
 63.85
11
136.99
21
 59.71
31
 63.05
0
LINE
8
CentreLine
10
137.00
20
 60.01
30
 63.85
11
137.13
21
 60.12
31
 63.24
0
LINE
8
CentreLine
10
137.00
20
 60.01
30
 63.85
11
137.33
21
 60.54
31
 63.61
0
LINE
8
CentreLine
10
137.52
20
 59.55
30
 63.42
11
137.65
21
 59.91
31
 62.74
0
LINE
8
CentreLine
10
137.52
20
 59.55
30
 63.42
11
137.69
21
 59.79
31
 64.20
0
LINE
8
CentreLine
10
137.52
20
 59.55
30
 63.42
11
137.89
21
 60.02
31
 63.39
0
LINE
8
CentreLine
10
138.75
20
 58.41
30
 62.96
11
139.12
21
 58.88
31
 62.76
0
LINE
8
CentreLine
10
138.75
20
 58.41
30
 62.96
11
138.80
21
 58.55
31
 62.25
0
LINE
8
CentreLine
10
138.75
20
 58.41
30
 62.96
11
138.45
21
 58.08
31
 62.84
0
LINE
8
CentreLine
10
140.01
20
 58.09
30
 62.59
11
140.01
21
 58.27
31
 62.82
0
LINE
8
CentreLine
10
140.01
20
 58.09
30
 62.59
11
139.89
21
 58.46
31
 61.82
0
LINE
8
CentreLine
10
140.01
20
 58.09
30
 62.59
11
140.15
21
 58.99
31
 62.39
0
LINE
8
CentreLine
10
141.20
20
 58.30
30
 62.25
11
140.96
21
 58.13
31
 62.91
0
LINE
8
CentreLine
10
141.20
20
 58.30
30
 62.25
11
140.96
21
 58.20
31
 61.74
0
LINE
8
CentreLine
10
141.20
20
 58.30
30
 62.25
11
140.91
21
 57.78
31
 62.17
0
LINE
8
CentreLine
10
141.70
20
 57.24
30
 60.96
11
142.05
21
 57.80
31
 61.11
0
LINE
8
CentreLine
10
141.70
20
 57.24
30
 60.96
11
141.99
21
 57.37
31
 61.90
0
LINE
8
CentreLine
10
141.70
20
 57.24
30
 60.96
11
141.96
21
 57.23
31
 60.13
0
LINE
8
CentreLine
10
142.77
20
 57.12
30
 60.52
11
143.70
21
 56.05
31
 60.38
0
LINE
8
CentreLine
10
142.77
20
 57.12
30
 60.52
11
143.19
21
 56.00
31
 60.60
0
LINE
8
CentreLine
10
142.77
20
 57.12
30
 60.52
11
143.46
21
 56.55
31
 59.65
0
LINE
8
CentreLine
10
142.77
20
 57.12
30
 60.52
11
141.97
21
 57.16
31
 60.03
0
LINE
8
CentreLine
10
142.77
20
 57.12
30
 60.52
11
142.38
21
 57.14
31
 60.31
0
LINE
8
CentreLine
10
142.77
20
 57.12
30
 60.52
11
142.59
21
 56.48
31
 61.16
0
LINE
8
CentreLine
10
142.77
20
 57.12
30
 60.52
11
142.51
21
 56.76
31
 60.45
0
LINE
8
CentreLine
10
144.74
20
 55.86
30
 59.18
11
144.70
21
 55.94
31
 58.84
0
LINE
8
CentreLine
10
144.74
20
 55.86
30
 59.18
11
144.84
21
 55.95
31
 59.53
0
LINE
8
CentreLine
10
144.74
20
 55.86
30
 59.18
11
144.89
21
 56.15
31
 59.15
0
LINE
8
CentreLine
10
145.48
20
 55.95
30
 58.74
11
145.55
21
 56.09
31
 58.81
0
LINE
8
CentreLine
10
145.48
20
 55.95
30
 58.74
11
145.64
21
 55.58
31
 59.37
0
LINE
8
CentreLine
10
145.48
20
 55.95
30
 58.74
11
145.45
21
 55.61
31
 58.81
0
LINE
8
CentreLine
10
146.04
20
 55.41
30
 58.08
11
146.25
21
 55.90
31
 58.26
0
LINE
8
CentreLine
10
146.04
20
 55.41
30
 58.08
11
145.98
21
 55.71
31
 59.03
0
LINE
8
CentreLine
10
146.04
20
 55.41
30
 58.08
11
145.96
21
 55.30
31
 58.31
0
LINE
8
CentreLine
10
149.54
20
 53.75
30
 57.50
11
150.24
21
 53.66
31
 57.92
0
LINE
8
CentreLine
10
149.54
20
 53.75
30
 57.50
11
150.33
21
 53.12
31
 57.53
0
LINE
8
CentreLine
10
149.54
20
 53.75
30
 57.50
11
150.70
21
 53.45
31
 57.53
0
LINE
8
CentreLine
10
149.54
20
 53.75
30
 57.50
11
150.64
21
 53.84
31
 57.84
0
LINE
8
CentreLine
10
149.54
20
 53.75
30
 57.50
11
149.39
21
 53.34
31
 57.69
0
LINE
8
CentreLine
10
149.54
20
 53.75
30
 57.50
11
149.54
21
 53.74
31
 58.00
0
LINE
8
CentreLine
10
149.54
20
 53.75
30
 57.50
11
149.60
21
 54.19
31
 57.78
0
LINE
8
CentreLine
10
148.67
20
 54.31
30
 58.02
11
148.44
21
 54.11
31
 57.38
0
LINE
8
CentreLine
10
148.67
20
 54.31
30
 58.02
11
148.56
21
 53.68
31
 57.83
0
LINE
8
CentreLine
10
148.67
20
 54.31
30
 58.02
11
148.78
21
 54.53
31
 57.92
0
LINE
8
CentreLine
10
147.57
20
 54.64
30
 57.49
11
147.33
21
 54.16
31
 57.57
0
LINE
8
CentreLine
10
147.57
20
 54.64
30
 57.49
11
147.53
21
 54.58
31
 58.04
0
LINE
8
CentreLine
10
147.57
20
 54.64
30
 57.49
11
147.85
21
 55.12
31
 57.74
0
LINE
8
CentreLine
10
146.50
20
 54.94
30
 57.79
11
147.21
21
 55.09
31
 57.51
0
LINE
8
CentreLine
10
146.50
20
 54.94
30
 57.79
11
146.70
21
 55.34
31
 57.63
0
LINE
8
CentreLine
10
146.50
20
 54.94
30
 57.79
11
146.03
21
 55.33
31
 57.72
0
LINE
8
CentreLine
10
146.29
20
 54.35
30
 56.76
11
146.36
21
 54.97
31
 56.84
0
LINE
8
CentreLine
10
146.29
20
 54.35
30
 56.76
11
145.45
21
 55.11
31
 57.22
0
LINE
8
CentreLine
10
146.29
20
 54.35
30
 56.76
11
146.81
21
 54.32
31
 56.82
0
LINE
8
CentreLine
10
146.23
20
 54.64
30
 55.98
11
146.22
21
 54.32
31
 56.47
0
LINE
8
CentreLine
10
146.23
20
 54.64
30
 55.98
11
146.36
21
 54.12
31
 55.98
0
LINE
8
CentreLine
10
146.23
20
 54.64
30
 55.98
11
146.73
21
 54.26
31
 56.05
0
LINE
8
CentreLine
10
146.23
20
 54.64
30
 55.98
11
145.34
21
 54.70
31
 56.41
0
LINE
8
CentreLine
10
146.30
20
 54.27
30
 55.10
11
146.06
21
 53.98
31
 55.79
0
LINE
8
CentreLine
10
146.30
20
 54.27
30
 55.10
11
146.08
21
 54.46
31
 55.36
0
LINE
8
CentreLine
10
146.30
20
 54.27
30
 55.10
11
146.66
21
 53.66
31
 55.15
0
LINE
8
CentreLine
10
145.14
20
 53.93
30
 54.57
11
145.49
21
 54.45
31
 54.48
0
LINE
8
CentreLine
10
145.14
20
 53.93
30
 54.57
11
145.44
21
 53.87
31
 53.69
0
LINE
8
CentreLine
10
145.14
20
 53.93
30
 54.57
11
145.32
21
 53.41
31
 54.45
0
LINE
8
CentreLine
10
145.14
20
 53.93
30
 54.57
11
145.22
21
 53.37
31
 54.24
0
LINE
8
CentreLine
10
145.14
20
 53.93
30
 54.57
11
145.36
21
 53.96
31
 53.55
0
LINE
8
CentreLine
10
145.14
20
 53.93
30
 54.57
11
145.14
21
 54.44
31
 54.51
0
LINE
8
CentreLine
10
145.15
20
 53.79
30
 53.33
11
145.67
21
 53.51
31
 53.29
0
LINE
8
CentreLine
10
145.15
20
 53.79
30
 53.33
11
145.13
21
 53.37
31
 53.38
0
LINE
8
CentreLine
10
145.15
20
 53.79
30
 53.33
11
144.81
21
 53.93
31
 54.47
0
LINE
8
CentreLine
10
145.15
20
 53.79
30
 53.33
11
144.65
21
 54.49
31
 55.00
0
LINE
8
CentreLine
10
145.15
20
 53.79
30
 53.33
11
144.83
21
 54.62
31
 54.44
0
LINE
8
CentreLine
10
145.15
20
 53.79
30
 53.33
11
144.85
21
 54.37
31
 53.65
0
LINE
8
CentreLine
10
144.17
20
 53.74
30
 52.76
11
144.26
21
 53.12
31
 52.49
0
LINE
8
CentreLine
10
144.17
20
 53.74
30
 52.76
11
144.05
21
 52.90
31
 53.03
0
LINE
8
CentreLine
10
144.17
20
 53.74
30
 52.76
11
144.03
21
 53.69
31
 53.82
0
LINE
8
CentreLine
10
144.17
20
 53.74
30
 52.76
11
144.12
21
 54.68
31
 54.87
0
LINE
8
CentreLine
10
144.17
20
 53.74
30
 52.76
11
144.14
21
 54.31
31
 53.67
0
LINE
8
CentreLine
10
144.17
20
 53.74
30
 52.76
11
144.17
21
 54.41
31
 53.15
0
LINE
8
CentreLine
10
142.46
20
 53.44
30
 52.32
11
142.53
21
 53.48
31
 52.92
0
LINE
8
CentreLine
10
142.46
20
 53.44
30
 52.32
11
142.49
21
 54.17
31
 53.37
0
LINE
8
CentreLine
10
142.46
20
 53.44
30
 52.32
11
143.14
21
 56.10
31
 53.39
0
LINE
8
CentreLine
10
142.46
20
 53.44
30
 52.32
11
142.66
21
 54.39
31
 51.80
0
LINE
8
CentreLine
10
142.46
20
 53.44
30
 52.32
11
142.42
21
 53.39
31
 51.04
0
LINE
8
CentreLine
10
142.46
20
 53.44
30
 52.32
11
142.26
21
 52.91
31
 51.72
0
LINE
8
CentreLine
10
115.60
20
 63.45
30
 62.68
11
114.40
21
 64.16
31
 62.55
0
LINE
8
CentreLine
10
115.60
20
 63.45
30
 62.68
11
114.96
21
 64.22
31
 62.65
0
LINE
8
CentreLine
10
115.60
20
 63.45
30
 62.68
11
114.69
21
 62.60
31
 62.60
0
LINE
8
CentreLine
10
115.60
20
 63.45
30
 62.68
11
113.75
21
 63.18
31
 62.64
0
LINE
8
CentreLine
10
115.60
20
 63.45
30
 62.68
11
114.01
21
 64.04
31
 62.66
0
LINE
8
CentreLine
10
107.19
20
 54.93
30
 65.60
11
107.37
21
 55.07
31
 66.00
0
LINE
8
CentreLine
10
107.19
20
 54.93
30
 65.60
11
107.11
21
 55.40
31
 65.50
0
LINE
8
CentreLine
10
107.19
20
 54.93
30
 65.60
11
107.38
21
 54.64
31
 65.63
0
LINE
8
CentreLine
10
107.19
20
 54.93
30
 65.60
11
107.59
21
 55.06
31
 64.87
0
LINE
8
CentreLine
10
110.77
20
 56.20
30
 64.81
11
110.84
21
 55.99
31
 65.67
0
LINE
8
CentreLine
10
110.77
20
 56.20
30
 64.81
11
110.79
21
 55.75
31
 63.87
0
LINE
8
CentreLine
10
110.77
20
 56.20
30
 64.81
11
110.88
21
 55.64
31
 64.84
0
LINE
8
CentreLine
10
114.76
20
 56.47
30
 63.64
11
114.70
21
 56.58
31
 62.93
0
LINE
8
CentreLine
10
114.76
20
 56.47
30
 63.64
11
114.03
21
 56.94
31
 63.39
0
LINE
8
CentreLine
10
114.76
20
 56.47
30
 63.64
11
114.75
21
 56.50
31
 62.94
0
LINE
8
CentreLine
10
114.76
20
 56.47
30
 63.64
11
115.27
21
 56.61
31
 63.63
0
LINE
8
CentreLine
10
115.14
20
 57.70
30
 63.43
11
114.99
21
 57.73
31
 63.84
0
LINE
8
CentreLine
10
115.14
20
 57.70
30
 63.43
11
114.97
21
 57.88
31
 63.08
0
LINE
8
CentreLine
10
115.14
20
 57.70
30
 63.43
11
114.44
21
 58.16
31
 63.37
0
LINE
8
CentreLine
10
115.31
20
 59.20
30
 63.74
11
115.61
21
 58.96
31
 64.07
0
LINE
8
CentreLine
10
115.31
20
 59.20
30
 63.74
11
116.02
21
 58.83
31
 63.72
0
LINE
8
CentreLine
10
115.31
20
 59.20
30
 63.74
11
116.64
21
 59.37
31
 63.70
0
LINE
8
CentreLine
10
115.31
20
 59.20
30
 63.74
11
115.43
21
 59.29
31
 63.14
0
LINE
8
CentreLine
10
116.32
20
 61.63
30
 64.31
11
116.26
21
 61.75
31
 63.26
0
LINE
8
CentreLine
10
116.32
20
 61.63
30
 64.31
11
116.24
21
 61.58
31
 64.50
0
LINE
8
CentreLine
10
116.32
20
 61.63
30
 64.31
11
115.95
21
 61.68
31
 64.26
0
LINE
8
CentreLine
10
116.62
20
 63.13
30
 63.99
11
116.31
21
 61.58
31
 64.39
0
LINE
8
CentreLine
10
116.62
20
 63.13
30
 63.99
11
116.32
21
 61.63
31
 64.38
0
LINE
8
CentreLine
10
116.62
20
 63.13
30
 63.99
11
116.32
21
 61.63
31
 64.38
0
LINE
8
CentreLine
10
116.62
20
 63.13
30
 63.99
11
115.76
21
 62.45
31
 63.93
0
LINE
8
CentreLine
10
116.62
20
 63.13
30
 63.99
11
116.79
21
 62.19
31
 64.11
0
LINE
8
CentreLine
10
116.62
20
 63.13
30
 63.99
11
116.24
21
 62.53
31
 64.69
0
LINE
8
CentreLine
10
116.62
20
 63.13
30
 63.99
11
116.50
21
 62.84
31
 63.46
0
LINE
8
CentreLine
10
115.61
20
 62.85
30
 64.79
11
114.71
21
 64.43
31
 65.38
0
LINE
8
CentreLine
10
115.61
20
 62.85
30
 64.79
11
114.84
21
 64.45
31
 65.16
0
LINE
8
CentreLine
10
115.61
20
 62.85
30
 64.79
11
115.75
21
 64.59
31
 64.60
0
LINE
8
CentreLine
10
115.61
20
 62.85
30
 64.79
11
116.49
21
 63.73
31
 64.41
0
LINE
8
CentreLine
10
115.61
20
 62.85
30
 64.79
11
116.31
21
 62.60
31
 63.53
0
LINE
8
CentreLine
10
115.61
20
 62.85
30
 64.79
11
115.74
21
 63.13
31
 62.81
0
LINE
8
CentreLine
10
115.61
20
 62.85
30
 64.79
11
116.62
21
 62.52
31
 64.73
0
LINE
8
CentreLine
10
115.61
20
 62.85
30
 64.79
11
116.30
21
 64.19
31
 64.83
0
LINE
8
CentreLine
10
116.39
20
 64.12
30
 65.84
11
115.03
21
 63.56
31
 64.91
0
LINE
8
CentreLine
10
116.39
20
 64.12
30
 65.84
11
115.76
21
 62.67
31
 64.87
0
LINE
8
CentreLine
10
116.39
20
 64.12
30
 65.84
11
116.16
21
 62.37
31
 65.22
0
LINE
8
CentreLine
10
116.39
20
 64.12
30
 65.84
11
116.67
21
 62.56
31
 66.54
0
LINE
8
CentreLine
10
116.39
20
 64.12
30
 65.84
11
115.61
21
 62.59
31
 66.24
0
LINE
8
CentreLine
10
116.39
20
 64.12
30
 65.84
11
114.76
21
 63.39
31
 66.55
0
LINE
8
CentreLine
10
116.39
20
 64.12
30
 65.84
11
114.82
21
 63.97
31
 65.18
0
LINE
8
CentreLine
10
116.39
20
 64.12
30
 65.84
11
114.68
21
 64.08
31
 65.89
0
LINE
8
CentreLine
10
116.39
20
 64.12
30
 65.84
11
114.75
21
 64.16
31
 66.31
0
LINE
8
CentreLine
10
116.39
20
 64.12
30
 65.84
11
115.12
21
 64.18
31
 67.14
0
LINE
8
CentreLine
10
116.39
20
 64.12
30
 65.84
11
115.23
21
 63.74
31
 67.51
0
LINE
8
CentreLine
10
116.39
20
 64.12
30
 65.84
11
115.93
21
 63.08
31
 67.55
0
LINE
8
CentreLine
10
116.39
20
 64.12
30
 65.84
11
116.02
21
 63.38
31
 68.44
0
LINE
8
CentreLine
10
116.39
20
 64.12
30
 65.84
11
116.25
21
 63.78
31
 69.52
0
LINE
8
CentreLine
10
116.39
20
 64.12
30
 65.84
11
116.98
21
 63.32
31
 68.13
0
LINE
8
CentreLine
10
116.39
20
 64.12
30
 65.84
11
117.62
21
 64.02
31
 70.18
0
LINE
8
CentreLine
10
116.39
20
 64.12
30
 65.84
11
115.56
21
 64.47
31
 68.97
0
LINE
8
CentreLine
10
116.21
20
 65.78
30
 72.94
11
116.29
21
 63.92
31
 70.12
0
LINE
8
CentreLine
10
116.21
20
 65.78
30
 72.94
11
116.28
21
 64.28
31
 71.86
0
LINE
8
CentreLine
10
116.21
20
 65.78
30
 72.94
11
117.47
21
 63.89
31
 68.56
0
LINE
8
CentreLine
10
116.21
20
 65.78
30
 72.94
11
117.46
21
 64.72
31
 69.15
0
LINE
8
CentreLine
10
116.21
20
 65.78
30
 72.94
11
118.20
21
 64.87
31
 70.92
0
LINE
8
CentreLine
10
116.21
20
 65.78
30
 72.94
11
117.65
21
 64.16
31
 70.73
0
LINE
8
CentreLine
10
116.21
20
 65.78
30
 72.94
11
117.75
21
 64.35
31
 72.14
0
LINE
8
CentreLine
10
116.21
20
 65.78
30
 72.94
11
115.14
21
 65.64
31
 70.59
0
LINE
8
CentreLine
10
116.21
20
 65.78
30
 72.94
11
115.61
21
 64.63
31
 70.74
0
LINE
8
CentreLine
10
116.21
20
 65.78
30
 72.94
11
116.71
21
 64.43
31
 72.68
0
LINE
8
CentreLine
10
116.21
20
 65.78
30
 72.94
11
117.80
21
 64.73
31
 73.00
0
LINE
8
CentreLine
10
116.21
20
 65.78
30
 72.94
11
117.19
21
 64.35
31
 72.99
0
LINE
8
CentreLine
10
116.21
20
 65.78
30
 72.94
11
116.38
21
 64.25
31
 72.88
0
LINE
8
CentreLine
10
116.21
20
 65.78
30
 72.94
11
115.74
21
 64.85
31
 72.85
0
LINE
8
CentreLine
10
116.21
20
 65.78
30
 72.94
11
115.30
21
 65.98
31
 72.22
0
LINE
8
CentreLine
10
116.60
20
 65.95
30
 73.29
11
117.95
21
 64.73
31
 73.58
0
LINE
8
CentreLine
10
116.60
20
 65.95
30
 73.29
11
116.61
21
 64.37
31
 73.29
0
LINE
8
CentreLine
10
116.60
20
 65.95
30
 73.29
11
117.11
21
 64.43
31
 73.52
0
LINE
8
CentreLine
10
116.60
20
 65.95
30
 73.29
11
115.66
21
 64.93
31
 73.36
0
LINE
8
CentreLine
10
116.60
20
 65.95
30
 73.29
11
115.35
21
 65.54
31
 73.21
0
LINE
8
CentreLine
10
116.60
20
 65.95
30
 73.29
11
114.75
21
 66.24
31
 74.92
0
LINE
8
CentreLine
10
116.60
20
 65.95
30
 73.29
11
117.78
21
 65.56
31
 74.98
0
LINE
8
CentreLine
10
116.60
20
 65.95
30
 73.29
11
118.07
21
 65.23
31
 73.75
0
LINE
8
CentreLine
10
116.60
20
 65.95
30
 73.29
11
116.90
21
 67.12
31
 75.12
0
LINE
8
CentreLine
10
116.60
20
 65.95
30
 73.29
11
114.99
21
 66.09
31
 73.88
0
LINE
8
CentreLine
10
116.88
20
 65.94
30
 77.60
11
116.64
21
 67.56
31
 74.77
0
LINE
8
CentreLine
10
116.88
20
 65.94
30
 77.60
11
115.18
21
 65.78
31
 72.77
0
LINE
8
CentreLine
10
116.88
20
 65.94
30
 77.60
11
115.84
21
 66.11
31
 73.25
0
LINE
8
CentreLine
10
116.88
20
 65.94
30
 77.60
11
115.08
21
 66.00
31
 73.08
0
LINE
8
CentreLine
10
116.88
20
 65.94
30
 77.60
11
118.00
21
 65.70
31
 75.47
0
LINE
8
CentreLine
10
116.88
20
 65.94
30
 77.60
11
117.29
21
 66.05
31
 74.16
0
LINE
8
CentreLine
10
116.88
20
 65.94
30
 77.60
11
117.69
21
 66.83
31
 75.46
0
LINE
8
CentreLine
10
116.88
20
 65.94
30
 77.60
11
116.32
21
 67.33
31
 76.40
0
LINE
8
CentreLine
10
116.88
20
 65.94
30
 77.60
11
115.61
21
 67.49
31
 76.13
0
LINE
8
CentreLine
10
116.88
20
 65.94
30
 77.60
11
114.82
21
 66.52
31
 74.50
0
LINE
8
CentreLine
10
116.88
20
 65.94
30
 77.60
11
114.87
21
 66.65
31
 75.76
0
LINE
8
CentreLine
10
116.88
20
 65.94
30
 77.60
11
115.22
21
 67.54
31
 75.56
0
LINE
8
CentreLine
10
116.88
20
 65.94
30
 77.60
11
114.92
21
 67.22
31
 76.23
0
LINE
8
CentreLine
10
116.88
20
 65.94
30
 77.60
11
116.19
21
 67.76
31
 78.48
0
LINE
8
CentreLine
10
116.88
20
 65.94
30
 77.60
11
116.09
21
 67.28
31
 78.66
0
LINE
8
CentreLine
10
116.88
20
 65.94
30
 77.60
11
115.86
21
 67.16
31
 78.29
0
LINE
8
CentreLine
10
116.88
20
 65.94
30
 77.60
11
115.27
21
 67.05
31
 77.32
0
LINE
8
CentreLine
10
116.88
20
 65.94
30
 77.60
11
118.37
21
 66.05
31
 78.08
0
LINE
8
CentreLine
10
116.88
20
 65.94
30
 77.60
11
117.93
21
 66.61
31
 78.90
0
LINE
8
CentreLine
10
116.88
20
 65.94
30
 77.60
11
117.58
21
 67.28
31
 78.97
0
LINE
8
CentreLine
10
116.88
20
 65.94
30
 77.60
11
117.74
21
 67.21
31
 78.47
0
LINE
8
CentreLine
10
116.88
20
 65.94
30
 77.60
11
117.55
21
 66.89
31
 77.89
0
LINE
8
CentreLine
10
116.88
20
 65.94
30
 77.60
11
117.56
21
 66.88
31
 77.51
0
LINE
8
CentreLine
10
116.88
20
 65.94
30
 77.60
11
118.19
21
 65.96
31
 77.59
0
LINE
8
CentreLine
10
117.30
20
 66.45
30
 78.54
11
117.14
21
 67.30
31
 78.45
0
LINE
8
CentreLine
10
117.30
20
 66.45
30
 78.54
11
118.46
21
 66.89
31
 78.53
0
LINE
8
CentreLine
10
117.30
20
 66.45
30
 78.54
11
118.09
21
 67.16
31
 78.43
0
LINE
8
CentreLine
10
117.30
20
 66.45
30
 78.54
11
118.06
21
 66.08
31
 78.13
0
LINE
8
CentreLine
10
117.30
20
 66.45
30
 78.54
11
118.17
21
 66.06
31
 78.53
0
LINE
8
CentreLine
10
117.30
20
 66.45
30
 78.54
11
116.33
21
 67.12
31
 77.90
0
LINE
8
CentreLine
10
117.30
20
 66.45
30
 78.54
11
116.94
21
 66.44
31
 78.47
0
LINE
8
CentreLine
10
117.30
20
 66.45
30
 78.54
11
116.56
21
 67.03
31
 78.50
0
LINE
8
CentreLine
10
117.44
20
 66.60
30
 78.95
11
116.71
21
 67.19
31
 78.53
0
LINE
8
CentreLine
10
117.44
20
 66.60
30
 78.95
11
117.18
21
 67.31
31
 78.71
0
LINE
8
CentreLine
10
117.44
20
 66.60
30
 78.95
11
117.47
21
 67.15
31
 79.11
0
LINE
8
CentreLine
10
117.44
20
 66.60
30
 78.95
11
118.40
21
 66.90
31
 78.19
0
LINE
8
CentreLine
10
117.44
20
 66.60
30
 78.95
11
118.11
21
 66.05
31
 78.64
0
LINE
8
CentreLine
10
117.44
20
 66.60
30
 78.95
11
118.23
21
 66.99
31
 78.99
0
TEXT
8
Labels
10
117.67
20
 66.60
30
 84.34
40
  0.60
1
longcliffe_mine.2.69
0
POINT
8
Stations
10
117.67
20
 66.60
30
 84.34
0
TEXT
8
Labels
10
119.15
20
 71.17
30
 83.41
40
  0.60
1
longcliffe_mine.1.0
0
POINT
8
Stations
10
119.15
20
 71.17
30
 83.41
0
TEXT
8
Labels
10
142.46
20
 53.44
30
 52.32
40
  0.60
1
longcliffe_mine.2.0
0
POINT
8
Stations
10
142.46
20
 53.44
30
 52.32
0
TEXT
8
Labels
10
118.21
20
 59.59
30
 48.25
40
  0.60
1
longcliffe_mine.16.0
0
POINT
8
Stations
10
118.21
20
 59.59
30
 48.25
0
TEXT
8
Labels
10
107.31
20
 66.53
30
 37.33
40
  0.60
1
longcliffe_mine.17.0
0
POINT
8
Stations
10
107.31
20
 66.53
30
 37.33
0
TEXT
8
Labels
10
142.77
20
 57.12
30
 60.52
40
  0.60
1
longcliffe_mine.19.0
0
POINT
8
Stations
10
142.77
20
 57.12
30
 60.52
0
TEXT
8
Labels
10
107.31
20
 66.53
30
 37.33
40
  0.60
1
longcliffe_mine.20.0
0
POINT
8
Stations
10
107.31
20
 66.53
30
 37.33
0
TEXT
8
Labels
10
 60.95
20
 75.05
30
  5.66
40
  0.60
1
longcliffe_mine.33.0
0
POINT
8
Stations
10
 60.95
20
 75.05
30
  5.66
0
TEXT
8
Labels
10
119.01
20
 69.84
30
 84.34
40
  0.60
1
longcliffe_mine.1.1
0
POINT
8
Stations
10
119.01
20
 69.84
30
 84.34
0
TEXT
8
Labels
10
144.17
20
 53.74
30
 52.76
40
  0.60
1
longcliffe_mine.2.1
0
POINT
8
Stations
10
144.17
20
 53.74
30
 52.76
0
TEXT
8
Labels
10
116.95
20
 60.29
30
 47.72
40
  0.60
1
longcliffe_mine.16.1
0
POINT
8
Stations
10
116.95
20
 60.29
30
 47.72
0
TEXT
8
Labels
10
107.44
20
 66.74
30
 36.43
40
  0.60
1
longcliffe_mine.17.1
0
POINT
8
Stations
10
107.44
20
 66.74
30
 36.43
0
TEXT
8
Labels
10
107.42
20
 66.74
30
 36.48
40
  0.60
1
longcliffe_mine.20.1
0
POINT
8
Stations
10
107.42
20
 66.74
30
 36.48
0
TEXT
8
Labels
10
 59.85
20
 74.57
30
  4.28
40
  0.60
1
longcliffe_mine.33.1
0
POINT
8
Stations
10
 59.85
20
 74.57
30
  4.28
0
TEXT
8
Labels
10
117.67
20
 66.60
30
 81.04
40
  0.60
1
longcliffe_mine.1.2
0
POINT
8
Stations
10
117.67
20
 66.60
30
 81.04
0
TEXT
8
Labels
10
145.15
20
 53.79
30
 53.33
40
  0.60
1
longcliffe_mine.2.2
0
POINT
8
Stations
10
145.15
20
 53.79
30
 53.33
0
TEXT
8
Labels
10
116.19
20
 60.64
30
 46.47
40
  0.60
1
longcliffe_mine.16.2
0
POINT
8
Stations
10
116.19
20
 60.64
30
 46.47
0
TEXT
8
Labels
10
107.18
20
 67.31
30
 35.05
40
  0.60
1
longcliffe_mine.17.2
0
POINT
8
Stations
10
107.18
20
 67.31
30
 35.05
0
TEXT
8
Labels
10
117.00
20
 60.35
30
 48.24
40
  0.60
1
longcliffe_mine.18.2
0
POINT
8
Stations
10
117.00
20
 60.35
30
 48.24
0
TEXT
8
Labels
10
141.70
20
 57.24
30
 60.96
40
  0.60
1
longcliffe_mine.19.2
0
POINT
8
Stations
10
141.70
20
 57.24
30
 60.96
0
TEXT
8
Labels
10
107.27
20
 67.26
30
 35.09
40
  0.60
1
longcliffe_mine.20.2
0
POINT
8
Stations
10
107.27
20
 67.26
30
 35.09
0
TEXT
8
Labels
10
 57.76
20
 74.48
30
  2.60
40
  0.60
1
longcliffe_mine.33.2
0
POINT
8
Stations
10
 57.76
20
 74.48
30
  2.60
0
TEXT
8
Labels
10
117.44
20
 66.60
30
 78.95
40
  0.60
1
longcliffe_mine.1.3
0
POINT
8
Stations
10
117.44
20
 66.60
30
 78.95
0
TEXT
8
Labels
10
145.14
20
 53.93
30
 54.57
40
  0.60
1
longcliffe_mine.2.3
0
POINT
8
Stations
10
145.14
20
 53.93
30
 54.57
0
TEXT
8
Labels
10
115.27
20
 60.70
30
 45.59
40
  0.60
1
longcliffe_mine.16.3
0
POINT
8
Stations
10
115.27
20
 60.70
30
 45.59
0
TEXT
8
Labels
10
106.22
20
 67.71
30
 35.06
40
  0.60
1
longcliffe_mine.17.3
0
POINT
8
Stations
10
106.22
20
 67.71
30
 35.06
0
TEXT
8
Labels
10
117.21
20
 61.42
30
 48.39
40
  0.60
1
longcliffe_mine.18.3
0
POINT
8
Stations
10
117.21
20
 61.42
30
 48.39
0
TEXT
8
Labels
10
141.20
20
 58.30
30
 62.25
40
  0.60
1
longcliffe_mine.19.3
0
POINT
8
Stations
10
141.20
20
 58.30
30
 62.25
0
TEXT
8
Labels
10
105.10
20
 68.03
30
 34.15
40
  0.60
1
longcliffe_mine.20.3
0
POINT
8
Stations
10
105.10
20
 68.03
30
 34.15
0
TEXT
8
Labels
10
 55.98
20
 74.38
30
  2.53
40
  0.60
1
longcliffe_mine.33.3
0
POINT
8
Stations
10
 55.98
20
 74.38
30
  2.53
0
TEXT
8
Labels
10
117.30
20
 66.45
30
 78.54
40
  0.60
1
longcliffe_mine.1.4
0
POINT
8
Stations
10
117.30
20
 66.45
30
 78.54
0
TEXT
8
Labels
10
146.30
20
 54.27
30
 55.10
40
  0.60
1
longcliffe_mine.2.4
0
POINT
8
Stations
10
146.30
20
 54.27
30
 55.10
0
TEXT
8
Labels
10
115.18
20
 60.90
30
 45.29
40
  0.60
1
longcliffe_mine.16.4
0
POINT
8
Stations
10
115.18
20
 60.90
30
 45.29
0
TEXT
8
Labels
10
105.46
20
 67.77
30
 34.65
40
  0.60
1
longcliffe_mine.17.4
0
POINT
8
Stations
10
105.46
20
 67.77
30
 34.65
0
TEXT
8
Labels
10
115.53
20
 62.85
30
 48.44
40
  0.60
1
longcliffe_mine.18.4
0
POINT
8
Stations
10
115.53
20
 62.85
30
 48.44
0
TEXT
8
Labels
10
140.01
20
 58.09
30
 62.59
40
  0.60
1
longcliffe_mine.19.4
0
POINT
8
Stations
10
140.01
20
 58.09
30
 62.59
0
TEXT
8
Labels
10
104.17
20
 68.89
30
 34.15
40
  0.60
1
longcliffe_mine.20.4
0
POINT
8
Stations
10
104.17
20
 68.89
30
 34.15
0
TEXT
8
Labels
10
 53.77
20
 75.32
30
  1.00
40
  0.60
1
longcliffe_mine.33.4
0
POINT
8
Stations
10
 53.77
20
 75.32
30
  1.00
0
TEXT
8
Labels
10
116.88
20
 65.94
30
 77.60
40
  0.60
1
longcliffe_mine.1.5
0
POINT
8
Stations
10
116.88
20
 65.94
30
 77.60
0
TEXT
8
Labels
10
146.23
20
 54.64
30
 55.98
40
  0.60
1
longcliffe_mine.2.5
0
POINT
8
Stations
10
146.23
20
 54.64
30
 55.98
0
TEXT
8
Labels
10
114.43
20
 61.35
30
 45.19
40
  0.60
1
longcliffe_mine.16.5
0
POINT
8
Stations
10
114.43
20
 61.35
30
 45.19
0
TEXT
8
Labels
10
105.61
20
 66.92
30
 34.10
40
  0.60
1
longcliffe_mine.17.5
0
POINT
8
Stations
10
105.61
20
 66.92
30
 34.10
0
TEXT
8
Labels
10
113.44
20
 63.26
30
 48.56
40
  0.60
1
longcliffe_mine.18.5
0
POINT
8
Stations
10
113.44
20
 63.26
30
 48.56
0
TEXT
8
Labels
10
138.75
20
 58.41
30
 62.96
40
  0.60
1
longcliffe_mine.19.5
0
POINT
8
Stations
10
138.75
20
 58.41
30
 62.96
0
TEXT
8
Labels
10
102.76
20
 69.17
30
 34.50
40
  0.60
1
longcliffe_mine.20.5
0
POINT
8
Stations
10
102.76
20
 69.17
30
 34.50
0
TEXT
8
Labels
10
 52.82
20
 76.40
30
  1.19
40
  0.60
1
longcliffe_mine.33.5
0
POINT
8
Stations
10
 52.82
20
 76.40
30
  1.19
0
TEXT
8
Labels
10
116.60
20
 65.95
30
 73.29
40
  0.60
1
longcliffe_mine.1.6
0
POINT
8
Stations
10
116.60
20
 65.95
30
 73.29
0
TEXT
8
Labels
10
146.29
20
 54.35
30
 56.76
40
  0.60
1
longcliffe_mine.2.6
0
POINT
8
Stations
10
146.29
20
 54.35
30
 56.76
0
TEXT
8
Labels
10
113.67
20
 62.97
30
 45.15
40
  0.60
1
longcliffe_mine.16.6
0
POINT
8
Stations
10
113.67
20
 62.97
30
 45.15
0
TEXT
8
Labels
10
104.69
20
 67.03
30
 30.39
40
  0.60
1
longcliffe_mine.17.6
0
POINT
8
Stations
10
104.69
20
 67.03
30
 30.39
0
TEXT
8
Labels
10
137.52
20
 59.55
30
 63.42
40
  0.60
1
longcliffe_mine.19.6
0
POINT
8
Stations
10
137.52
20
 59.55
30
 63.42
0
TEXT
8
Labels
10
102.91
20
 69.78
30
 34.48
40
  0.60
1
longcliffe_mine.20.6
0
POINT
8
Stations
10
102.91
20
 69.78
30
 34.48
0
TEXT
8
Labels
10
 52.25
20
 78.42
30
  1.50
40
  0.60
1
longcliffe_mine.33.6
0
POINT
8
Stations
10
 52.25
20
 78.42
30
  1.50
0
TEXT
8
Labels
10
116.21
20
 65.78
30
 72.94
40
  0.60
1
longcliffe_mine.1.7
0
POINT
8
Stations
10
116.21
20
 65.78
30
 72.94
0
TEXT
8
Labels
10
146.50
20
 54.94
30
 57.79
40
  0.60
1
longcliffe_mine.2.7
0
POINT
8
Stations
10
146.50
20
 54.94
30
 57.79
0
TEXT
8
Labels
10
114.12
20
 63.78
30
 44.97
40
  0.60
1
longcliffe_mine.16.7
0
POINT
8
Stations
10
114.12
20
 63.78
30
 44.97
0
TEXT
8
Labels
10
104.83
20
 67.30
30
 28.96
40
  0.60
1
longcliffe_mine.17.7
0
POINT
8
Stations
10
104.83
20
 67.30
30
 28.96
0
TEXT
8
Labels
10
137.00
20
 60.01
30
 63.85
40
  0.60
1
longcliffe_mine.19.7
0
POINT
8
Stations
10
137.00
20
 60.01
30
 63.85
0
TEXT
8
Labels
10
102.23
20
 69.29
30
 36.38
40
  0.60
1
longcliffe_mine.20.7
0
POINT
8
Stations
10
102.23
20
 69.29
30
 36.38
0
TEXT
8
Labels
10
 51.87
20
 77.94
30
  0.95
40
  0.60
1
longcliffe_mine.33.7
0
POINT
8
Stations
10
 51.87
20
 77.94
30
  0.95
0
TEXT
8
Labels
10
116.39
20
 64.12
30
 65.84
40
  0.60
1
longcliffe_mine.1.8
0
POINT
8
Stations
10
116.39
20
 64.12
30
 65.84
0
TEXT
8
Labels
10
147.57
20
 54.64
30
 57.49
40
  0.60
1
longcliffe_mine.2.8
0
POINT
8
Stations
10
147.57
20
 54.64
30
 57.49
0
TEXT
8
Labels
10
113.19
20
 64.73
30
 43.86
40
  0.60
1
longcliffe_mine.16.8
0
POINT
8
Stations
10
113.19
20
 64.73
30
 43.86
0
TEXT
8
Labels
10
101.93
20
 65.11
30
 24.09
40
  0.60
1
longcliffe_mine.17.8
0
POINT
8
Stations
10
101.93
20
 65.11
30
 24.09
0
TEXT
8
Labels
10
136.33
20
 60.04
30
 63.62
40
  0.60
1
longcliffe_mine.19.8
0
POINT
8
Stations
10
136.33
20
 60.04
30
 63.62
0
TEXT
8
Labels
10
103.06
20
 69.05
30
 36.18
40
  0.60
1
longcliffe_mine.20.8
0
POINT
8
Stations
10
103.06
20
 69.05
30
 36.18
0
TEXT
8
Labels
10
 50.87
20
 77.42
30
  0.11
40
  0.60
1
longcliffe_mine.33.8
0
POINT
8
Stations
10
 50.87
20
 77.42
30
  0.11
0
TEXT
8
Labels
10
115.61
20
 62.85
30
 64.79
40
  0.60
1
longcliffe_mine.1.9
0
POINT
8
Stations
10
115.61
20
 62.85
30
 64.79
0
TEXT
8
Labels
10
148.67
20
 54.31
30
 58.02
40
  0.60
1
longcliffe_mine.2.9
0
POINT
8
Stations
10
148.67
20
 54.31
30
 58.02
0
TEXT
8
Labels
10
113.22
20
 64.76
30
 41.89
40
  0.60
1
longcliffe_mine.16.9
0
POINT
8
Stations
10
113.22
20
 64.76
30
 41.89
0
TEXT
8
Labels
10
102.00
20
 63.52
30
 22.67
40
  0.60
1
longcliffe_mine.17.9
0
POINT
8
Stations
10
102.00
20
 63.52
30
 22.67
0
TEXT
8
Labels
10
134.58
20
 60.24
30
 63.50
40
  0.60
1
longcliffe_mine.19.9
0
POINT
8
Stations
10
134.58
20
 60.24
30
 63.50
0
TEXT
8
Labels
10
102.83
20
 68.20
30
 36.33
40
  0.60
1
longcliffe_mine.20.9
0
POINT
8
Stations
10
102.83
20
 68.20
30
 36.33
0
TEXT
8
Labels
10
116.62
20
 63.13
30
 63.99
40
  0.60
1
longcliffe_mine.1.10
0
POINT
8
Stations
10
116.62
20
 63.13
30
 63.99
0
TEXT
8
Labels
10
149.54
20
 53.75
30
 57.50
40
  0.60
1
longcliffe_mine.2.10
0
POINT
8
Stations
10
149.54
20
 53.75
30
 57.50
0
TEXT
8
Labels
10
112.71
20
 64.83
30
 41.05
40
  0.60
1
longcliffe_mine.16.10
0
POINT
8
Stations
10
112.71
20
 64.83
30
 41.05
0
TEXT
8
Labels
10
 97.94
20
 64.55
30
 21.67
40
  0.60
1
longcliffe_mine.17.10
0
POINT
8
Stations
10
 97.94
20
 64.55
30
 21.67
0
TEXT
8
Labels
10
141.63
20
 54.28
30
 50.90
40
  0.60
1
longcliffe_mine.19.10
0
POINT
8
Stations
10
141.63
20
 54.28
30
 50.90
0
TEXT
8
Labels
10
103.67
20
 67.75
30
 36.34
40
  0.60
1
longcliffe_mine.20.10
0
POINT
8
Stations
10
103.67
20
 67.75
30
 36.34
0
TEXT
8
Labels
10
116.32
20
 61.63
30
 64.31
40
  0.60
1
longcliffe_mine.1.11
0
POINT
8
Stations
10
116.32
20
 61.63
30
 64.31
0
TEXT
8
Labels
10
150.69
20
 53.43
30
 57.54
40
  0.60
1
longcliffe_mine.2.11
0
POINT
8
Stations
10
150.69
20
 53.43
30
 57.54
0
TEXT
8
Labels
10
112.11
20
 64.31
30
 41.12
40
  0.60
1
longcliffe_mine.16.11
0
POINT
8
Stations
10
112.11
20
 64.31
30
 41.12
0
TEXT
8
Labels
10
 96.70
20
 65.02
30
 20.69
40
  0.60
1
longcliffe_mine.17.11
0
POINT
8
Stations
10
 96.70
20
 65.02
30
 20.69
0
TEXT
8
Labels
10
103.61
20
 66.79
30
 36.10
40
  0.60
1
longcliffe_mine.20.11
0
POINT
8
Stations
10
103.61
20
 66.79
30
 36.10
0
TEXT
8
Labels
10
115.31
20
 59.20
30
 63.74
40
  0.60
1
longcliffe_mine.1.12
0
POINT
8
Stations
10
115.31
20
 59.20
30
 63.74
0
TEXT
8
Labels
10
146.04
20
 55.41
30
 58.08
40
  0.60
1
longcliffe_mine.2.12
0
POINT
8
Stations
10
146.04
20
 55.41
30
 58.08
0
TEXT
8
Labels
10
111.24
20
 65.46
30
 41.01
40
  0.60
1
longcliffe_mine.16.12
0
POINT
8
Stations
10
111.24
20
 65.46
30
 41.01
0
TEXT
8
Labels
10
 95.13
20
 64.14
30
 19.77
40
  0.60
1
longcliffe_mine.17.12
0
POINT
8
Stations
10
 95.13
20
 64.14
30
 19.77
0
TEXT
8
Labels
10
104.59
20
 66.37
30
 36.20
40
  0.60
1
longcliffe_mine.20.12
0
POINT
8
Stations
10
104.59
20
 66.37
30
 36.20
0
TEXT
8
Labels
10
115.14
20
 57.70
30
 63.43
40
  0.60
1
longcliffe_mine.1.13
0
POINT
8
Stations
10
115.14
20
 57.70
30
 63.43
0
TEXT
8
Labels
10
145.48
20
 55.95
30
 58.74
40
  0.60
1
longcliffe_mine.2.13
0
POINT
8
Stations
10
145.48
20
 55.95
30
 58.74
0
TEXT
8
Labels
10
109.76
20
 65.90
30
 38.28
40
  0.60
1
longcliffe_mine.16.13
0
POINT
8
Stations
10
109.76
20
 65.90
30
 38.28
0
TEXT
8
Labels
10
 92.73
20
 65.05
30
 19.06
40
  0.60
1
longcliffe_mine.17.13
0
POINT
8
Stations
10
 92.73
20
 65.05
30
 19.06
0
TEXT
8
Labels
10
106.15
20
 64.67
30
 36.70
40
  0.60
1
longcliffe_mine.20.13
0
POINT
8
Stations
10
106.15
20
 64.67
30
 36.70
0
TEXT
8
Labels
10
114.76
20
 56.47
30
 63.64
40
  0.60
1
longcliffe_mine.1.14
0
POINT
8
Stations
10
114.76
20
 56.47
30
 63.64
0
TEXT
8
Labels
10
144.74
20
 55.86
30
 59.18
40
  0.60
1
longcliffe_mine.2.14
0
POINT
8
Stations
10
144.74
20
 55.86
30
 59.18
0
TEXT
8
Labels
10
108.58
20
 66.32
30
 37.49
40
  0.60
1
longcliffe_mine.16.14
0
POINT
8
Stations
10
108.58
20
 66.32
30
 37.49
0
TEXT
8
Labels
10
 90.15
20
 65.03
30
 17.27
40
  0.60
1
longcliffe_mine.17.14
0
POINT
8
Stations
10
 90.15
20
 65.03
30
 17.27
0
TEXT
8
Labels
10
107.44
20
 63.47
30
 36.82
40
  0.60
1
longcliffe_mine.20.14
0
POINT
8
Stations
10
107.44
20
 63.47
30
 36.82
0
TEXT
8
Labels
10
110.77
20
 56.20
30
 64.81
40
  0.60
1
longcliffe_mine.1.15
0
POINT
8
Stations
10
110.77
20
 56.20
30
 64.81
0
TEXT
8
Labels
10
144.03
20
 56.28
30
 59.35
40
  0.60
1
longcliffe_mine.2.15
0
POINT
8
Stations
10
144.03
20
 56.28
30
 59.35
0
TEXT
8
Labels
10
108.29
20
 66.30
30
 37.06
40
  0.60
1
longcliffe_mine.16.15
0
POINT
8
Stations
10
108.29
20
 66.30
30
 37.06
0
TEXT
8
Labels
10
 90.19
20
 63.93
30
 16.65
40
  0.60
1
longcliffe_mine.17.15
0
POINT
8
Stations
10
 90.19
20
 63.93
30
 16.65
0
TEXT
8
Labels
10
108.69
20
 62.71
30
 37.21
40
  0.60
1
longcliffe_mine.20.15
0
POINT
8
Stations
10
108.69
20
 62.71
30
 37.21
0
TEXT
8
Labels
10
107.19
20
 54.93
30
 65.60
40
  0.60
1
longcliffe_mine.1.16
0
POINT
8
Stations
10
107.19
20
 54.93
30
 65.60
0
TEXT
8
Labels
10
142.20
20
 56.13
30
 53.00
40
  0.60
1
longcliffe_mine.2.16
0
POINT
8
Stations
10
142.20
20
 56.13
30
 53.00
0
TEXT
8
Labels
10
108.07
20
 66.73
30
 36.75
40
  0.60
1
longcliffe_mine.16.16
0
POINT
8
Stations
10
108.07
20
 66.73
30
 36.75
0
TEXT
8
Labels
10
 85.57
20
 65.46
30
 15.43
40
  0.60
1
longcliffe_mine.17.16
0
POINT
8
Stations
10
 85.57
20
 65.46
30
 15.43
0
TEXT
8
Labels
10
110.28
20
 61.84
30
 36.98
40
  0.60
1
longcliffe_mine.20.16
0
POINT
8
Stations
10
110.28
20
 61.84
30
 36.98
0
TEXT
8
Labels
10
115.60
20
 63.45
30
 62.68
40
  0.60
1
longcliffe_mine.1.17
0
POINT
8
Stations
10
115.60
20
 63.45
30
 62.68
0
TEXT
8
Labels
10
143.36
20
 55.83
30
 53.50
40
  0.60
1
longcliffe_mine.2.17
0
POINT
8
Stations
10
143.36
20
 55.83
30
 53.50
0
TEXT
8
Labels
10
107.31
20
 66.53
30
 37.33
40
  0.60
1
longcliffe_mine.16.17
0
POINT
8
Stations
10
107.31
20
 66.53
30
 37.33
0
TEXT
8
Labels
10
 84.63
20
 66.80
30
 14.93
40
  0.60
1
longcliffe_mine.17.17
0
POINT
8
Stations
10
 84.63
20
 66.80
30
 14.93
0
TEXT
8
Labels
10
110.93
20
 60.43
30
 37.11
40
  0.60
1
longcliffe_mine.20.17
0
POINT
8
Stations
10
110.93
20
 60.43
30
 37.11
0
TEXT
8
Labels
10
112.72
20
 63.86
30
 60.20
40
  0.60
1
longcliffe_mine.1.18
0
POINT
8
Stations
10
112.72
20
 63.86
30
 60.20
0
TEXT
8
Labels
10
143.81
20
 55.77
30
 54.18
40
  0.60
1
longcliffe_mine.2.18
0
POINT
8
Stations
10
143.81
20
 55.77
30
 54.18
0
TEXT
8
Labels
10
119.89
20
 59.24
30
 48.82
40
  0.60
1
longcliffe_mine.16.18
0
POINT
8
Stations
10
119.89
20
 59.24
30
 48.82
0
TEXT
8
Labels
10
 83.46
20
 67.12
30
 14.97
40
  0.60
1
longcliffe_mine.17.18
0
POINT
8
Stations
10
 83.46
20
 67.12
30
 14.97
0
TEXT
8
Labels
10
111.91
20
 60.78
30
 36.12
40
  0.60
1
longcliffe_mine.20.18
0
POINT
8
Stations
10
111.91
20
 60.78
30
 36.12
0
TEXT
8
Labels
10
144.12
20
 56.66
30
 54.87
40
  0.60
1
longcliffe_mine.2.19
0
POINT
8
Stations
10
144.12
20
 56.66
30
 54.87
0
TEXT
8
Labels
10
120.90
20
 57.77
30
 48.59
40
  0.60
1
longcliffe_mine.16.19
0
POINT
8
Stations
10
120.90
20
 57.77
30
 48.59
0
TEXT
8
Labels
10
 82.56
20
 68.26
30
 14.02
40
  0.60
1
longcliffe_mine.17.19
0
POINT
8
Stations
10
 82.56
20
 68.26
30
 14.02
0
TEXT
8
Labels
10
112.23
20
 59.92
30
 35.65
40
  0.60
1
longcliffe_mine.20.19
0
POINT
8
Stations
10
112.23
20
 59.92
30
 35.65
0
TEXT
8
Labels
10
143.08
20
 57.08
30
 55.11
40
  0.60
1
longcliffe_mine.2.20
0
POINT
8
Stations
10
143.08
20
 57.08
30
 55.11
0
TEXT
8
Labels
10
121.48
20
 58.90
30
 48.35
40
  0.60
1
longcliffe_mine.16.20
0
POINT
8
Stations
10
121.48
20
 58.90
30
 48.35
0
TEXT
8
Labels
10
 82.07
20
 67.51
30
 13.34
40
  0.60
1
longcliffe_mine.17.20
0
POINT
8
Stations
10
 82.07
20
 67.51
30
 13.34
0
TEXT
8
Labels
10
113.30
20
 58.46
30
 35.42
40
  0.60
1
longcliffe_mine.20.20
0
POINT
8
Stations
10
113.30
20
 58.46
30
 35.42
0
TEXT
8
Labels
10
142.07
20
 57.85
30
 56.02
40
  0.60
1
longcliffe_mine.2.21
0
POINT
8
Stations
10
142.07
20
 57.85
30
 56.02
0
TEXT
8
Labels
10
120.94
20
 61.11
30
 48.17
40
  0.60
1
longcliffe_mine.16.21
0
POINT
8
Stations
10
120.94
20
 61.11
30
 48.17
0
TEXT
8
Labels
10
 81.13
20
 67.51
30
 13.16
40
  0.60
1
longcliffe_mine.17.21
0
POINT
8
Stations
10
 81.13
20
 67.51
30
 13.16
0
TEXT
8
Labels
10
113.89
20
 57.95
30
 35.82
40
  0.60
1
longcliffe_mine.20.21
0
POINT
8
Stations
10
113.89
20
 57.95
30
 35.82
0
TEXT
8
Labels
10
142.45
20
 58.93
30
 56.84
40
  0.60
1
longcliffe_mine.2.22
0
POINT
8
Stations
10
142.45
20
 58.93
30
 56.84
0
TEXT
8
Labels
10
 79.13
20
 69.03
30
 11.94
40
  0.60
1
longcliffe_mine.17.22
0
POINT
8
Stations
10
 79.13
20
 69.03
30
 11.94
0
TEXT
8
Labels
10
115.57
20
 56.27
30
 35.45
40
  0.60
1
longcliffe_mine.20.22
0
POINT
8
Stations
10
115.57
20
 56.27
30
 35.45
0
TEXT
8
Labels
10
142.47
20
 59.92
30
 57.54
40
  0.60
1
longcliffe_mine.2.23
0
POINT
8
Stations
10
142.47
20
 59.92
30
 57.54
0
TEXT
8
Labels
10
 78.94
20
 69.07
30
 10.97
40
  0.60
1
longcliffe_mine.17.23
0
POINT
8
Stations
10
 78.94
20
 69.07
30
 10.97
0
TEXT
8
Labels
10
116.97
20
 56.15
30
 34.88
40
  0.60
1
longcliffe_mine.20.23
0
POINT
8
Stations
10
116.97
20
 56.15
30
 34.88
0
TEXT
8
Labels
10
142.35
20
 60.64
30
 57.90
40
  0.60
1
longcliffe_mine.2.24
0
POINT
8
Stations
10
142.35
20
 60.64
30
 57.90
0
TEXT
8
Labels
10
 75.84
20
 70.29
30
 11.10
40
  0.60
1
longcliffe_mine.17.24
0
POINT
8
Stations
10
 75.84
20
 70.29
30
 11.10
0
TEXT
8
Labels
10
115.78
20
 55.69
30
 34.55
40
  0.60
1
longcliffe_mine.20.24
0
POINT
8
Stations
10
115.78
20
 55.69
30
 34.55
0
TEXT
8
Labels
10
142.29
20
 61.21
30
 58.15
40
  0.60
1
longcliffe_mine.2.25
0
POINT
8
Stations
10
142.29
20
 61.21
30
 58.15
0
TEXT
8
Labels
10
 71.96
20
 72.40
30
  9.15
40
  0.60
1
longcliffe_mine.17.25
0
POINT
8
Stations
10
 71.96
20
 72.40
30
  9.15
0
TEXT
8
Labels
10
114.47
20
 56.32
30
 34.04
40
  0.60
1
longcliffe_mine.20.25
0
POINT
8
Stations
10
114.47
20
 56.32
30
 34.04
0
TEXT
8
Labels
10
140.84
20
 61.03
30
 58.41
40
  0.60
1
longcliffe_mine.2.26
0
POINT
8
Stations
10
140.84
20
 61.03
30
 58.41
0
TEXT
8
Labels
10
 68.13
20
 72.39
30
  7.13
40
  0.60
1
longcliffe_mine.17.26
0
POINT
8
Stations
10
 68.13
20
 72.39
30
  7.13
0
TEXT
8
Labels
10
113.28
20
 56.35
30
 33.03
40
  0.60
1
longcliffe_mine.20.26
0
POINT
8
Stations
10
113.28
20
 56.35
30
 33.03
0
TEXT
8
Labels
10
143.79
20
 61.19
30
 59.25
40
  0.60
1
longcliffe_mine.2.27
0
POINT
8
Stations
10
143.79
20
 61.19
30
 59.25
0
TEXT
8
Labels
10
 66.41
20
 74.80
30
  7.47
40
  0.60
1
longcliffe_mine.17.27
0
POINT
8
Stations
10
 66.41
20
 74.80
30
  7.47
0
TEXT
8
Labels
10
119.17
20
 55.23
30
 34.36
40
  0.60
1
longcliffe_mine.20.27
0
POINT
8
Stations
10
119.17
20
 55.23
30
 34.36
0
TEXT
8
Labels
10
140.85
20
 56.34
30
 52.60
40
  0.60
1
longcliffe_mine.2.28
0
POINT
8
Stations
10
140.85
20
 56.34
30
 52.60
0
TEXT
8
Labels
10
 65.38
20
 73.85
30
  6.23
40
  0.60
1
longcliffe_mine.17.28
0
POINT
8
Stations
10
 65.38
20
 73.85
30
  6.23
0
TEXT
8
Labels
10
120.92
20
 54.31
30
 35.15
40
  0.60
1
longcliffe_mine.20.28
0
POINT
8
Stations
10
120.92
20
 54.31
30
 35.15
0
TEXT
8
Labels
10
140.01
20
 57.27
30
 53.48
40
  0.60
1
longcliffe_mine.2.29
0
POINT
8
Stations
10
140.01
20
 57.27
30
 53.48
0
TEXT
8
Labels
10
 63.18
20
 74.69
30
  6.16
40
  0.60
1
longcliffe_mine.17.29
0
POINT
8
Stations
10
 63.18
20
 74.69
30
  6.16
0
TEXT
8
Labels
10
122.10
20
 54.57
30
 35.05
40
  0.60
1
longcliffe_mine.20.29
0
POINT
8
Stations
10
122.10
20
 54.57
30
 35.05
0
TEXT
8
Labels
10
142.53
20
 53.35
30
 51.21
40
  0.60
1
longcliffe_mine.2.30
0
POINT
8
Stations
10
142.53
20
 53.35
30
 51.21
0
TEXT
8
Labels
10
 61.46
20
 75.17
30
  5.80
40
  0.60
1
longcliffe_mine.17.30
0
POINT
8
Stations
10
 61.46
20
 75.17
30
  5.80
0
TEXT
8
Labels
10
122.99
20
 53.99
30
 35.20
40
  0.60
1
longcliffe_mine.20.30
0
POINT
8
Stations
10
122.99
20
 53.99
30
 35.20
0
TEXT
8
Labels
10
141.13
20
 53.43
30
 51.50
40
  0.60
1
longcliffe_mine.2.31
0
POINT
8
Stations
10
141.13
20
 53.43
30
 51.50
0
TEXT
8
Labels
10
 60.95
20
 75.05
30
  5.66
40
  0.60
1
longcliffe_mine.17.31
0
POINT
8
Stations
10
 60.95
20
 75.05
30
  5.66
0
TEXT
8
Labels
10
123.57
20
 54.11
30
 35.34
40
  0.60
1
longcliffe_mine.20.31
0
POINT
8
Stations
10
123.57
20
 54.11
30
 35.34
0
TEXT
8
Labels
10
140.34
20
 54.06
30
 50.69
40
  0.60
1
longcliffe_mine.2.32
0
POINT
8
Stations
10
140.34
20
 54.06
30
 50.69
0
TEXT
8
Labels
10
 60.76
20
 75.22
30
  5.84
40
  0.60
1
longcliffe_mine.17.32
0
POINT
8
Stations
10
 60.76
20
 75.22
30
  5.84
0
TEXT
8
Labels
10
124.26
20
 53.84
30
 35.30
40
  0.60
1
longcliffe_mine.20.32
0
POINT
8
Stations
10
124.26
20
 53.84
30
 35.30
0
TEXT
8
Labels
10
139.06
20
 54.28
30
 50.07
40
  0.60
1
longcliffe_mine.2.33
0
POINT
8
Stations
10
139.06
20
 54.28
30
 50.07
0
TEXT
8
Labels
10
 59.58
20
 76.52
30
  5.62
40
  0.60
1
longcliffe_mine.17.33
0
POINT
8
Stations
10
 59.58
20
 76.52
30
  5.62
0
TEXT
8
Labels
10
142.08
20
 54.78
30
 51.98
40
  0.60
1
longcliffe_mine.2.34
0
POINT
8
Stations
10
142.08
20
 54.78
30
 51.98
0
TEXT
8
Labels
10
 58.60
20
 76.89
30
  6.45
40
  0.60
1
longcliffe_mine.17.34
0
POINT
8
Stations
10
 58.60
20
 76.89
30
  6.45
0
TEXT
8
Labels
10
136.50
20
 53.84
30
 49.00
40
  0.60
1
longcliffe_mine.2.35
0
POINT
8
Stations
10
136.50
20
 53.84
30
 49.00
0
TEXT
8
Labels
10
 60.12
20
 75.33
30
  5.08
40
  0.60
1
longcliffe_mine.17.35
0
POINT
8
Stations
10
 60.12
20
 75.33
30
  5.08
0
TEXT
8
Labels
10
134.06
20
 54.37
30
 48.53
40
  0.60
1
longcliffe_mine.2.36
0
POINT
8
Stations
10
134.06
20
 54.37
30
 48.53
0
TEXT
8
Labels
10
 59.02
20
 74.44
30
  4.07
40
  0.60
1
longcliffe_mine.17.36
0
POINT
8
Stations
10
 59.02
20
 74.44
30
  4.07
0
TEXT
8
Labels
10
131.97
20
 54.15
30
 48.40
40
  0.60
1
longcliffe_mine.2.37
0
POINT
8
Stations
10
131.97
20
 54.15
30
 48.40
0
TEXT
8
Labels
10
 60.40
20
 75.06
30
  5.75
40
  0.60
1
longcliffe_mine.17.37
0
POINT
8
Stations
10
 60.40
20
 75.06
30
  5.75
0
TEXT
8
Labels
10
130.22
20
 55.06
30
 48.50
40
  0.60
1
longcliffe_mine.2.38
0
POINT
8
Stations
10
130.22
20
 55.06
30
 48.50
0
TEXT
8
Labels
10
 60.47
20
 75.33
30
  7.80
40
  0.60
1
longcliffe_mine.17.38
0
POINT
8
Stations
10
 60.47
20
 75.33
30
  7.80
0
TEXT
8
Labels
10
128.75
20
 55.67
30
 48.44
40
  0.60
1
longcliffe_mine.2.39
0
POINT
8
Stations
10
128.75
20
 55.67
30
 48.44
0
TEXT
8
Labels
10
104.26
20
 63.85
30
 23.77
40
  0.60
1
longcliffe_mine.17.39
0
POINT
8
Stations
10
104.26
20
 63.85
30
 23.77
0
TEXT
8
Labels
10
127.69
20
 54.74
30
 48.49
40
  0.60
1
longcliffe_mine.2.40
0
POINT
8
Stations
10
127.69
20
 54.74
30
 48.49
0
TEXT
8
Labels
10
105.38
20
 64.83
30
 24.66
40
  0.60
1
longcliffe_mine.17.40
0
POINT
8
Stations
10
105.38
20
 64.83
30
 24.66
0
TEXT
8
Labels
10
127.04
20
 55.79
30
 48.29
40
  0.60
1
longcliffe_mine.2.41
0
POINT
8
Stations
10
127.04
20
 55.79
30
 48.29
0
TEXT
8
Labels
10
105.97
20
 65.91
30
 24.18
40
  0.60
1
longcliffe_mine.17.41
0
POINT
8
Stations
10
105.97
20
 65.91
30
 24.18
0
TEXT
8
Labels
10
124.44
20
 56.06
30
 48.67
40
  0.60
1
longcliffe_mine.2.42
0
POINT
8
Stations
10
124.44
20
 56.06
30
 48.67
0
TEXT
8
Labels
10
106.16
20
 65.65
30
 24.16
40
  0.60
1
longcliffe_mine.17.42
0
POINT
8
Stations
10
106.16
20
 65.65
30
 24.16
0
TEXT
8
Labels
10
124.48
20
 55.81
30
 47.78
40
  0.60
1
longcliffe_mine.2.43
0
POINT
8
Stations
10
124.48
20
 55.81
30
 47.78
0
TEXT
8
Labels
10
107.56
20
 65.12
30
 24.27
40
  0.60
1
longcliffe_mine.17.43
0
POINT
8
Stations
10
107.56
20
 65.12
30
 24.27
0
TEXT
8
Labels
10
124.53
20
 53.62
30
 39.89
40
  0.60
1
longcliffe_mine.2.44
0
POINT
8
Stations
10
124.53
20
 53.62
30
 39.89
0
TEXT
8
Labels
10
108.58
20
 64.47
30
 24.17
40
  0.60
1
longcliffe_mine.17.44
0
POINT
8
Stations
10
108.58
20
 64.47
30
 24.17
0
TEXT
8
Labels
10
127.03
20
 53.94
30
 39.15
40
  0.60
1
longcliffe_mine.2.45
0
POINT
8
Stations
10
127.03
20
 53.94
30
 39.15
0
TEXT
8
Labels
10
110.59
20
 63.75
30
 22.79
40
  0.60
1
longcliffe_mine.17.45
0
POINT
8
Stations
10
110.59
20
 63.75
30
 22.79
0
TEXT
8
Labels
10
123.64
20
 52.47
30
 39.89
40
  0.60
1
longcliffe_mine.2.46
0
POINT
8
Stations
10
123.64
20
 52.47
30
 39.89
0
TEXT
8
Labels
10
111.71
20
 62.76
30
 23.49
40
  0.60
1
longcliffe_mine.17.46
0
POINT
8
Stations
10
111.71
20
 62.76
30
 23.49
0
TEXT
8
Labels
10
122.26
20
 52.69
30
 39.81
40
  0.60
1
longcliffe_mine.2.47
0
POINT
8
Stations
10
122.26
20
 52.69
30
 39.81
0
TEXT
8
Labels
10
113.07
20
 61.20
30
 23.22
40
  0.60
1
longcliffe_mine.17.47
0
POINT
8
Stations
10
113.07
20
 61.20
30
 23.22
0
TEXT
8
Labels
10
120.63
20
 52.58
30
 40.66
40
  0.60
1
longcliffe_mine.2.48
0
POINT
8
Stations
10
120.63
20
 52.58
30
 40.66
0
TEXT
8
Labels
10
115.69
20
 59.86
30
 22.57
40
  0.60
1
longcliffe_mine.17.48
0
POINT
8
Stations
10
115.69
20
 59.86
30
 22.57
0
TEXT
8
Labels
10
119.64
20
 52.32
30
 40.85
40
  0.60
1
longcliffe_mine.2.49
0
POINT
8
Stations
10
119.64
20
 52.32
30
 40.85
0
TEXT
8
Labels
10
116.70
20
 57.86
30
 23.06
40
  0.60
1
longcliffe_mine.17.49
0
POINT
8
Stations
10
116.70
20
 57.86
30
 23.06
0
TEXT
8
Labels
10
118.50
20
 51.73
30
 40.57
40
  0.60
1
longcliffe_mine.2.50
0
POINT
8
Stations
10
118.50
20
 51.73
30
 40.57
0
TEXT
8
Labels
10
118.24
20
 58.10
30
 23.05
40
  0.60
1
longcliffe_mine.17.50
0
POINT
8
Stations
10
118.24
20
 58.10
30
 23.05
0
TEXT
8
Labels
10
118.67
20
 50.90
30
 39.65
40
  0.60
1
longcliffe_mine.2.51
0
POINT
8
Stations
10
118.67
20
 50.90
30
 39.65
0
TEXT
8
Labels
10
119.18
20
 56.76
30
 23.01
40
  0.60
1
longcliffe_mine.17.51
0
POINT
8
Stations
10
119.18
20
 56.76
30
 23.01
0
TEXT
8
Labels
10
118.58
20
 50.84
30
 38.23
40
  0.60
1
longcliffe_mine.2.52
0
POINT
8
Stations
10
118.58
20
 50.84
30
 38.23
0
TEXT
8
Labels
10
121.20
20
 56.75
30
 23.11
40
  0.60
1
longcliffe_mine.17.52
0
POINT
8
Stations
10
121.20
20
 56.75
30
 23.11
0
TEXT
8
Labels
10
117.95
20
 50.59
30
 37.50
40
  0.60
1
longcliffe_mine.2.53
0
POINT
8
Stations
10
117.95
20
 50.59
30
 37.50
0
TEXT
8
Labels
10
122.44
20
 55.12
30
 23.14
40
  0.60
1
longcliffe_mine.17.53
0
POINT
8
Stations
10
122.44
20
 55.12
30
 23.14
0
TEXT
8
Labels
10
117.37
20
 50.43
30
 37.22
40
  0.60
1
longcliffe_mine.2.54
0
POINT
8
Stations
10
117.37
20
 50.43
30
 37.22
0
TEXT
8
Labels
10
123.49
20
 55.05
30
 23.79
40
  0.60
1
longcliffe_mine.17.54
0
POINT
8
Stations
10
123.49
20
 55.05
30
 23.79
0
TEXT
8
Labels
10
115.64
20
 50.08
30
 36.93
40
  0.60
1
longcliffe_mine.2.55
0
POINT
8
Stations
10
115.64
20
 50.08
30
 36.93
0
TEXT
8
Labels
10
124.12
20
 55.14
30
 24.85
40
  0.60
1
longcliffe_mine.17.55
0
POINT
8
Stations
10
124.12
20
 55.14
30
 24.85
0
TEXT
8
Labels
10
123.32
20
 55.73
30
 47.88
40
  0.60
1
longcliffe_mine.2.56
0
POINT
8
Stations
10
123.32
20
 55.73
30
 47.88
0
TEXT
8
Labels
10
125.07
20
 54.78
30
 24.66
40
  0.60
1
longcliffe_mine.17.56
0
POINT
8
Stations
10
125.07
20
 54.78
30
 24.66
0
TEXT
8
Labels
10
122.79
20
 56.27
30
 48.16
40
  0.60
1
longcliffe_mine.2.57
0
POINT
8
Stations
10
122.79
20
 56.27
30
 48.16
0
TEXT
8
Labels
10
126.18
20
 54.29
30
 25.80
40
  0.60
1
longcliffe_mine.17.57
0
POINT
8
Stations
10
126.18
20
 54.29
30
 25.80
0
TEXT
8
Labels
10
121.00
20
 58.33
30
 48.72
40
  0.60
1
longcliffe_mine.2.58
0
POINT
8
Stations
10
121.00
20
 58.33
30
 48.72
0
TEXT
8
Labels
10
126.18
20
 54.29
30
 29.80
40
  0.60
1
longcliffe_mine.17.58
0
POINT
8
Stations
10
126.18
20
 54.29
30
 29.80
0
TEXT
8
Labels
10
119.17
20
 58.99
30
 48.52
40
  0.60
1
longcliffe_mine.2.59
0
POINT
8
Stations
10
119.17
20
 58.99
30
 48.52
0
TEXT
8
Labels
10
127.10
20
 53.88
30
 29.80
40
  0.60
1
longcliffe_mine.17.59
0
POINT
8
Stations
10
127.10
20
 53.88
30
 29.80
0
TEXT
8
Labels
10
118.21
20
 59.59
30
 48.25
40
  0.60
1
longcliffe_mine.2.60
0
POINT
8
Stations
10
118.21
20
 59.59
30
 48.25
0
TEXT
8
Labels
10
116.73
20
 60.07
30
 46.62
40
  0.60
1
longcliffe_mine.2.61
0
POINT
8
Stations
10
116.73
20
 60.07
30
 46.62
0
TEXT
8
Labels
10
117.53
20
 61.72
30
 48.96
40
  0.60
1
longcliffe_mine.2.62
0
POINT
8
Stations
10
117.53
20
 61.72
30
 48.96
0
TEXT
8
Labels
10
116.68
20
 63.06
30
 49.63
40
  0.60
1
longcliffe_mine.2.63
0
POINT
8
Stations
10
116.68
20
 63.06
30
 49.63
0
TEXT
8
Labels
10
115.61
20
 63.59
30
 50.28
40
  0.60
1
longcliffe_mine.2.64
0
POINT
8
Stations
10
115.61
20
 63.59
30
 50.28
0
TEXT
8
Labels
10
114.62
20
 63.84
30
 51.08
40
  0.60
1
longcliffe_mine.2.65
0
POINT
8
Stations
10
114.62
20
 63.84
30
 51.08
0
TEXT
8
Labels
10
112.56
20
 64.17
30
 50.53
40
  0.60
1
longcliffe_mine.2.66
0
POINT
8
Stations
10
112.56
20
 64.17
30
 50.53
0
TEXT
8
Labels
10
112.71
20
 63.19
30
 59.83
40
  0.60
1
longcliffe_mine.2.67
0
POINT
8
Stations
10
112.71
20
 63.19
30
 59.83
0
TEXT
8
Labels
10
114.54
20
 63.41
30
 63.77
40
  0.60
1
longcliffe_mine.2.68
0
POINT
8
Stations
10
114.54
20
 63.41
30
 63.77
000
ENDSEC
000
EOF
