0
SECTION
2
HEADER
9
$EXTMIN
10
0.000000
20
0.000000
30
0.000000
9
$EXTMAX
10
191.650000
20
180.290000
30
28.050000
9
$PDMODE
70
3
9
$PDSIZE
40
  0.80
0
ENDSEC
0
SECTION
2
TABLES
0
TABLE
2
LTYPE
70
10
0
LTYPE
2
CONTINUOUS
70
64
3
Continuous
72
65
73
0
40
0.0
0
LTYPE
2
DASHED
70
64
3
Dashed
72
65
73
2
40
2.5
49
1.25
49
-1.25
0
ENDTAB
0
TABLE
2
LAYER
70
10
0
LAYER
2
CentreLine
70
64
62
5
6
CONTINUOUS
0
LAYER
2
Stations
70
64
62
7
6
CONTINUOUS
0
LAYER
2
Labels
70
64
62
7
6
CONTINUOUS
0
LAYER
2
Surface
70
64
62
5
6
DASHED
0
LAYER
2
SurfaceStations
70
64
62
7
6
CONTINUOUS
0
LAYER
2
SurfaceLabels
70
64
62
7
6
CONTINUOUS
0
LAYER
2
Grid
70
64
62
7
6
CONTINUOUS
0
ENDTAB
0
ENDSEC
0
SECTION
2
ENTITIES
0
LINE
8
Grid
10
100.00
20
  0.00
30
0
11
100.00
21
180.29
31
0
0
LINE
8
Grid
10
  0.00
20
100.00
30
0
11
191.65
21
100.00
31
0
0
LINE
8
CentreLine
10
110.46
20
129.36
30
 21.13
11
110.30
21
130.29
31
 19.80
0
LINE
8
CentreLine
10
110.30
20
130.29
30
 19.80
11
108.89
21
126.99
31
 16.59
0
LINE
8
CentreLine
10
108.89
20
126.99
30
 16.59
11
108.66
21
124.90
31
 16.59
0
LINE
8
CentreLine
10
108.66
20
124.90
30
 16.59
11
108.52
21
124.49
31
 16.45
0
LINE
8
CentreLine
10
108.52
20
124.49
30
 16.45
11
108.10
21
123.55
31
 15.95
0
LINE
8
CentreLine
10
108.10
20
123.55
30
 15.95
11
107.82
21
119.24
31
 15.96
0
LINE
8
CentreLine
10
107.82
20
119.24
30
 15.96
11
107.42
21
118.90
31
 15.80
0
LINE
8
CentreLine
10
107.42
20
118.90
30
 15.80
11
107.57
21
111.79
31
 14.14
0
LINE
8
CentreLine
10
107.57
20
111.79
30
 14.14
11
106.76
21
110.75
31
 12.88
0
LINE
8
CentreLine
10
106.76
20
110.75
30
 12.88
11
105.71
21
109.73
31
 13.47
0
LINE
8
CentreLine
10
105.71
20
109.73
30
 13.47
11
103.88
21
105.79
31
 13.28
0
LINE
8
CentreLine
10
103.88
20
105.79
30
 13.28
11
103.75
21
 96.49
31
 14.27
0
LINE
8
CentreLine
10
103.75
20
 96.49
30
 14.27
11
105.79
21
 97.05
31
 13.89
0
LINE
8
CentreLine
10
105.79
20
 97.05
30
 13.89
11
106.77
21
 96.24
31
 13.63
0
LINE
8
CentreLine
10
106.77
20
 96.24
30
 13.63
11
107.83
21
 95.59
31
 13.07
0
LINE
8
CentreLine
10
107.83
20
 95.59
30
 13.07
11
108.66
21
 94.92
31
 11.72
0
LINE
8
CentreLine
10
108.66
20
 94.92
30
 11.72
11
109.29
21
 94.21
31
  9.58
0
LINE
8
CentreLine
10
109.29
20
 94.21
30
  9.58
11
110.24
21
 94.48
31
  8.96
0
LINE
8
CentreLine
10
110.24
20
 94.48
30
  8.96
11
112.06
21
 94.68
31
  8.26
0
LINE
8
CentreLine
10
112.06
20
 94.68
30
  8.26
11
113.80
21
 94.12
31
  6.17
0
LINE
8
CentreLine
10
113.80
20
 94.12
30
  6.17
11
114.32
21
 93.84
31
  5.62
0
LINE
8
CentreLine
10
114.32
20
 93.84
30
  5.62
11
115.49
21
 93.74
31
  5.68
0
LINE
8
CentreLine
10
115.49
20
 93.74
30
  5.68
11
115.45
21
 94.62
31
  5.93
0
LINE
8
CentreLine
10
115.45
20
 94.62
30
  5.93
11
118.04
21
 94.24
31
  5.61
0
LINE
8
CentreLine
10
118.04
20
 94.24
30
  5.61
11
118.67
21
 94.45
31
  4.55
0
LINE
8
CentreLine
10
118.67
20
 94.45
30
  4.55
11
119.75
21
 94.40
31
  5.46
0
LINE
8
CentreLine
10
119.75
20
 94.40
30
  5.46
11
121.20
21
 94.46
31
  4.82
0
LINE
8
CentreLine
10
121.20
20
 94.46
30
  4.82
11
122.94
21
 94.36
31
  3.87
0
LINE
8
CentreLine
10
122.94
20
 94.36
30
  3.87
11
125.03
21
 94.49
31
  4.05
0
LINE
8
CentreLine
10
125.03
20
 94.49
30
  4.05
11
127.46
21
 94.96
31
  3.47
0
LINE
8
CentreLine
10
127.46
20
 94.96
30
  3.47
11
130.03
21
 96.03
31
  3.87
0
LINE
8
CentreLine
10
130.03
20
 96.03
30
  3.87
11
131.31
21
 96.65
31
  3.61
0
LINE
8
CentreLine
10
131.31
20
 96.65
30
  3.61
11
132.09
21
 97.46
31
  2.97
0
LINE
8
CentreLine
10
132.09
20
 97.46
30
  2.97
11
133.42
21
 98.28
31
  2.96
0
LINE
8
CentreLine
10
133.42
20
 98.28
30
  2.96
11
133.21
21
 97.68
31
  2.43
0
LINE
8
CentreLine
10
133.42
20
 98.28
30
  2.96
11
133.37
21
 97.00
31
  2.91
0
LINE
8
CentreLine
10
133.42
20
 98.28
30
  2.96
11
133.64
21
 97.76
31
  3.89
0
LINE
8
CentreLine
10
133.42
20
 98.28
30
  2.96
11
134.16
21
 99.35
31
  5.60
0
LINE
8
CentreLine
10
133.42
20
 98.28
30
  2.96
11
133.47
21
 99.33
31
  3.68
0
LINE
8
CentreLine
10
133.42
20
 98.28
30
  2.96
11
133.49
21
 98.88
31
  2.99
0
LINE
8
CentreLine
10
133.42
20
 98.28
30
  2.96
11
135.13
21
 98.71
31
  3.22
0
LINE
8
CentreLine
10
135.13
20
 98.71
30
  3.22
11
135.14
21
 99.11
31
  3.89
0
LINE
8
CentreLine
10
135.13
20
 98.71
30
  3.22
11
135.11
21
 99.63
31
  3.79
0
LINE
8
CentreLine
10
135.13
20
 98.71
30
  3.22
11
135.10
21
100.84
31
  4.16
0
LINE
8
CentreLine
10
135.13
20
 98.71
30
  3.22
11
134.99
21
 99.77
31
  3.17
0
LINE
8
CentreLine
10
135.13
20
 98.71
30
  3.22
11
134.99
21
 98.99
31
  2.38
0
LINE
8
CentreLine
10
135.13
20
 98.71
30
  3.22
11
135.21
21
 98.45
31
  2.59
0
LINE
8
CentreLine
10
135.13
20
 98.71
30
  3.22
11
136.11
21
 99.29
31
  3.25
0
LINE
8
CentreLine
10
136.11
20
 99.29
30
  3.25
11
135.82
21
 99.60
31
  3.83
0
LINE
8
CentreLine
10
136.11
20
 99.29
30
  3.25
11
135.80
21
100.40
31
  4.08
0
LINE
8
CentreLine
10
136.11
20
 99.29
30
  3.25
11
135.62
21
100.96
31
  3.96
0
LINE
8
CentreLine
10
136.11
20
 99.29
30
  3.25
11
135.76
21
100.43
31
  3.40
0
LINE
8
CentreLine
10
136.11
20
 99.29
30
  3.25
11
136.08
21
 99.34
31
  2.83
0
LINE
8
CentreLine
10
136.11
20
 99.29
30
  3.25
11
136.63
21
 99.25
31
  2.96
0
LINE
8
CentreLine
10
136.11
20
 99.29
30
  3.25
11
136.10
21
100.53
31
  3.39
0
LINE
8
CentreLine
10
136.10
20
100.53
30
  3.39
11
136.11
21
100.46
31
  3.91
0
LINE
8
CentreLine
10
136.10
20
100.53
30
  3.39
11
136.32
21
 99.51
31
  3.41
0
LINE
8
CentreLine
10
136.10
20
100.53
30
  3.39
11
136.17
21
100.20
31
  2.82
0
LINE
8
CentreLine
10
136.10
20
100.53
30
  3.39
11
136.27
21
100.41
31
  2.87
0
LINE
8
CentreLine
10
136.10
20
100.53
30
  3.39
11
136.40
21
 99.64
31
  3.33
0
LINE
8
CentreLine
10
136.10
20
100.53
30
  3.39
11
136.45
21
100.44
31
  3.90
0
LINE
8
CentreLine
10
136.10
20
100.53
30
  3.39
11
137.26
21
101.06
31
  3.71
0
LINE
8
CentreLine
10
137.26
20
101.06
30
  3.71
11
137.61
21
101.11
31
  3.09
0
LINE
8
CentreLine
10
137.26
20
101.06
30
  3.71
11
137.04
21
101.32
31
  3.90
0
LINE
8
CentreLine
10
137.26
20
101.06
30
  3.71
11
137.01
21
101.74
31
  3.42
0
LINE
8
CentreLine
10
137.26
20
101.06
30
  3.71
11
137.20
21
101.93
31
  4.08
0
LINE
8
CentreLine
10
137.20
20
101.93
30
  4.08
11
136.31
21
102.37
31
  4.15
0
LINE
8
CentreLine
10
137.20
20
101.93
30
  4.08
11
137.69
21
102.00
31
  3.69
0
LINE
8
CentreLine
10
137.20
20
101.93
30
  4.08
11
137.32
21
101.94
31
  3.55
0
LINE
8
CentreLine
10
137.20
20
101.93
30
  4.08
11
137.18
21
102.43
31
  3.75
0
LINE
8
CentreLine
10
137.20
20
101.93
30
  4.08
11
137.25
21
102.71
31
  3.79
0
LINE
8
CentreLine
10
137.25
20
102.71
30
  3.79
11
137.78
21
102.77
31
  3.75
0
LINE
8
CentreLine
10
137.25
20
102.71
30
  3.79
11
136.44
21
103.17
31
  4.56
0
LINE
8
CentreLine
10
137.25
20
102.71
30
  3.79
11
137.33
21
102.79
31
  4.40
0
LINE
8
CentreLine
10
137.25
20
102.71
30
  3.79
11
137.47
21
103.74
31
  4.36
0
LINE
8
CentreLine
10
137.47
20
103.74
30
  4.36
11
137.01
21
103.66
31
  4.77
0
LINE
8
CentreLine
10
137.47
20
103.74
30
  4.36
11
137.69
21
103.58
31
  4.76
0
LINE
8
CentreLine
10
137.47
20
103.74
30
  4.36
11
138.19
21
103.46
31
  4.51
0
LINE
8
CentreLine
10
137.47
20
103.74
30
  4.36
11
138.55
21
103.43
31
  4.05
0
LINE
8
CentreLine
10
138.55
20
103.43
30
  4.05
11
138.84
21
103.68
31
  4.52
0
LINE
8
CentreLine
10
138.55
20
103.43
30
  4.05
11
138.51
21
103.99
31
  3.99
0
LINE
8
CentreLine
10
138.55
20
103.43
30
  4.05
11
138.30
21
103.51
31
  3.57
0
LINE
8
CentreLine
10
138.55
20
103.43
30
  4.05
11
139.64
21
103.96
31
  3.70
0
LINE
8
CentreLine
10
139.64
20
103.96
30
  3.70
11
139.74
21
103.87
31
  3.91
0
LINE
8
CentreLine
10
139.64
20
103.96
30
  3.70
11
139.51
21
103.78
31
  3.07
0
LINE
8
CentreLine
10
139.64
20
103.96
30
  3.70
11
139.40
21
103.32
31
  3.50
0
LINE
8
CentreLine
10
139.64
20
103.96
30
  3.70
11
140.49
21
103.44
31
  3.12
0
LINE
8
CentreLine
10
140.49
20
103.44
30
  3.12
11
140.56
21
103.72
31
  3.55
0
LINE
8
CentreLine
10
140.49
20
103.44
30
  3.12
11
140.49
21
103.95
31
  3.11
0
LINE
8
CentreLine
10
140.49
20
103.44
30
  3.12
11
140.33
21
103.63
31
  2.71
0
LINE
8
CentreLine
10
140.49
20
103.44
30
  3.12
11
141.60
21
103.78
31
  3.18
0
LINE
8
CentreLine
10
140.49
20
103.44
30
  3.12
11
141.65
21
103.47
31
  2.80
0
LINE
8
CentreLine
10
140.49
20
103.44
30
  3.12
11
141.27
21
103.47
31
  2.47
0
LINE
8
CentreLine
10
140.49
20
103.44
30
  3.12
11
141.20
21
103.87
31
  3.02
0
LINE
8
CentreLine
10
140.49
20
103.44
30
  3.12
11
141.64
21
103.48
31
  2.78
0
LINE
8
CentreLine
10
138.55
20
103.43
30
  4.05
11
137.03
21
104.03
31
  4.86
0
LINE
8
CentreLine
10
137.03
20
104.03
30
  4.86
11
136.94
21
104.26
31
  4.74
0
LINE
8
CentreLine
10
137.03
20
104.03
30
  4.86
11
136.97
21
104.99
31
  5.15
0
LINE
8
CentreLine
10
137.03
20
104.03
30
  4.86
11
137.24
21
104.21
31
  5.34
0
LINE
8
CentreLine
10
137.03
20
104.03
30
  4.86
11
136.47
21
104.69
31
  5.40
0
LINE
8
CentreLine
10
136.47
20
104.69
30
  5.40
11
136.44
21
104.76
31
  5.06
0
LINE
8
CentreLine
10
136.47
20
104.69
30
  5.40
11
136.62
21
105.32
31
  5.03
0
LINE
8
CentreLine
10
136.47
20
104.69
30
  5.40
11
136.55
21
104.77
31
  5.54
0
LINE
8
CentreLine
10
136.47
20
104.69
30
  5.40
11
135.72
21
105.13
31
  5.33
0
LINE
8
CentreLine
10
135.72
20
105.13
30
  5.33
11
135.89
21
105.10
31
  5.61
0
LINE
8
CentreLine
10
135.72
20
105.13
30
  5.33
11
135.83
21
105.49
31
  5.42
0
LINE
8
CentreLine
10
135.72
20
105.13
30
  5.33
11
135.69
21
104.79
31
  5.41
0
LINE
8
CentreLine
10
135.72
20
105.13
30
  5.33
11
135.02
21
105.30
31
  5.76
0
LINE
8
CentreLine
10
133.42
20
 98.28
30
  2.96
11
133.21
21
 98.96
31
  5.64
0
LINE
8
CentreLine
10
133.21
20
 98.96
30
  5.64
11
133.83
21
 98.82
31
  4.66
0
LINE
8
CentreLine
10
133.21
20
 98.96
30
  5.64
11
132.27
21
 98.82
31
  5.21
0
LINE
8
CentreLine
10
133.21
20
 98.96
30
  5.64
11
133.12
21
 99.37
31
  5.09
0
LINE
8
CentreLine
10
133.21
20
 98.96
30
  5.64
11
133.27
21
 98.25
31
  5.14
0
LINE
8
CentreLine
10
133.21
20
 98.96
30
  5.64
11
134.36
21
 99.46
31
  5.32
0
LINE
8
CentreLine
10
134.36
20
 99.46
30
  5.32
11
133.86
21
100.06
31
  6.00
0
LINE
8
CentreLine
10
134.36
20
 99.46
30
  5.32
11
134.00
21
 99.92
31
  5.32
0
LINE
8
CentreLine
10
134.36
20
 99.46
30
  5.32
11
134.32
21
 99.71
31
  5.04
0
LINE
8
CentreLine
10
134.36
20
 99.46
30
  5.32
11
134.82
21
100.14
31
  5.25
0
LINE
8
CentreLine
10
134.82
20
100.14
30
  5.25
11
133.96
21
100.27
31
  5.99
0
LINE
8
CentreLine
10
134.82
20
100.14
30
  5.25
11
135.01
21
100.38
31
  5.19
0
LINE
8
CentreLine
10
134.82
20
100.14
30
  5.25
11
134.85
21
 99.90
31
  5.50
0
LINE
8
CentreLine
10
134.82
20
100.14
30
  5.25
11
135.15
21
100.83
31
  6.14
0
LINE
8
CentreLine
10
135.15
20
100.83
30
  6.14
11
135.14
21
100.89
31
  5.67
0
LINE
8
CentreLine
10
135.15
20
100.83
30
  6.14
11
135.69
21
101.00
31
  5.82
0
LINE
8
CentreLine
10
135.15
20
100.83
30
  6.14
11
134.21
21
101.00
31
  5.99
0
LINE
8
CentreLine
10
135.15
20
100.83
30
  6.14
11
135.24
21
101.72
31
  6.50
0
LINE
8
CentreLine
10
135.15
20
100.83
30
  6.14
11
134.11
21
101.07
31
  6.58
0
LINE
8
CentreLine
10
134.11
20
101.07
30
  6.58
11
133.92
21
101.17
31
  6.15
0
LINE
8
CentreLine
10
134.11
20
101.07
30
  6.58
11
134.29
21
101.66
31
  6.42
0
LINE
8
CentreLine
10
134.11
20
101.07
30
  6.58
11
134.32
21
101.63
31
  6.86
0
LINE
8
CentreLine
10
134.11
20
101.07
30
  6.58
11
133.12
21
101.98
31
  7.37
0
LINE
8
CentreLine
10
133.12
20
101.98
30
  7.37
11
132.72
21
102.38
31
  7.27
0
LINE
8
CentreLine
10
133.12
20
101.98
30
  7.37
11
133.74
21
102.09
31
  7.46
0
LINE
8
CentreLine
10
133.12
20
101.98
30
  7.37
11
133.18
21
101.78
31
  7.57
0
LINE
8
CentreLine
10
133.12
20
101.98
30
  7.37
11
133.27
21
102.36
31
  7.28
0
LINE
8
CentreLine
10
133.12
20
101.98
30
  7.37
11
133.52
21
102.81
31
  8.44
0
LINE
8
CentreLine
10
133.52
20
102.81
30
  8.44
11
131.69
21
102.82
31
  8.87
0
LINE
8
CentreLine
10
133.52
20
102.81
30
  8.44
11
132.74
21
103.12
31
  8.53
0
LINE
8
CentreLine
10
133.52
20
102.81
30
  8.44
11
132.73
21
102.52
31
  8.61
0
LINE
8
CentreLine
10
133.52
20
102.81
30
  8.44
11
133.56
21
103.50
31
  9.43
0
LINE
8
CentreLine
10
133.56
20
103.50
30
  9.43
11
134.44
21
103.89
31
  9.11
0
LINE
8
CentreLine
10
133.56
20
103.50
30
  9.43
11
133.38
21
103.91
31
  9.38
0
LINE
8
CentreLine
10
133.56
20
103.50
30
  9.43
11
132.44
21
103.59
31
  9.60
0
LINE
8
CentreLine
10
133.56
20
103.50
30
  9.43
11
133.23
21
103.23
31
  9.57
0
LINE
8
CentreLine
10
133.56
20
103.50
30
  9.43
11
133.46
21
103.86
31
 10.15
0
LINE
8
CentreLine
10
133.46
20
103.86
30
 10.15
11
132.46
21
103.92
31
 10.12
0
LINE
8
CentreLine
10
133.46
20
103.86
30
 10.15
11
133.44
21
104.20
31
  9.93
0
LINE
8
CentreLine
10
133.46
20
103.86
30
 10.15
11
133.81
21
104.20
31
 10.00
0
LINE
8
CentreLine
10
133.46
20
103.86
30
 10.15
11
133.23
21
103.59
31
 10.00
0
LINE
8
CentreLine
10
133.46
20
103.86
30
 10.15
11
133.41
21
104.12
31
 10.73
0
LINE
8
CentreLine
10
133.41
20
104.12
30
 10.73
11
133.39
21
104.27
31
 10.46
0
LINE
8
CentreLine
10
133.41
20
104.12
30
 10.73
11
132.09
21
104.10
31
 10.51
0
LINE
8
CentreLine
10
133.41
20
104.12
30
 10.73
11
134.34
21
104.54
31
 10.36
0
LINE
8
CentreLine
10
133.41
20
104.12
30
 10.73
11
131.96
21
104.38
31
 10.57
0
LINE
8
CentreLine
10
131.96
20
104.38
30
 10.57
11
131.18
21
105.59
31
 10.56
0
LINE
8
CentreLine
10
131.96
20
104.38
30
 10.57
11
131.48
21
105.98
31
 10.76
0
LINE
8
CentreLine
10
131.96
20
104.38
30
 10.57
11
131.82
21
107.55
31
 11.08
0
LINE
8
CentreLine
10
131.96
20
104.38
30
 10.57
11
132.15
21
107.72
31
 11.13
0
LINE
8
CentreLine
10
131.96
20
104.38
30
 10.57
11
133.22
21
106.70
31
 10.96
0
LINE
8
CentreLine
10
131.96
20
104.38
30
 10.57
11
133.37
21
105.58
31
 10.82
0
LINE
8
CentreLine
10
133.41
20
104.12
30
 10.73
11
134.91
21
105.22
31
 10.67
0
LINE
8
CentreLine
10
134.91
20
105.22
30
 10.67
11
134.89
21
105.29
31
 10.91
0
LINE
8
CentreLine
10
134.91
20
105.22
30
 10.67
11
134.91
21
105.34
31
 10.51
0
LINE
8
CentreLine
10
134.91
20
105.22
30
 10.67
11
135.61
21
105.54
31
 10.66
0
LINE
8
CentreLine
10
134.91
20
105.22
30
 10.67
11
135.45
21
105.38
31
 10.97
0
LINE
8
CentreLine
10
134.91
20
105.22
30
 10.67
11
136.37
21
104.27
31
 10.53
0
LINE
8
CentreLine
10
134.91
20
105.22
30
 10.67
11
134.29
21
106.09
31
 10.94
0
LINE
8
CentreLine
10
134.91
20
105.22
30
 10.67
11
134.78
21
107.54
31
 11.28
0
LINE
8
CentreLine
10
134.91
20
105.22
30
 10.67
11
134.11
21
109.88
31
 11.79
0
LINE
8
CentreLine
10
134.91
20
105.22
30
 10.67
11
133.04
21
110.98
31
 12.01
0
LINE
8
CentreLine
10
134.91
20
105.22
30
 10.67
11
133.42
21
108.12
31
 11.39
0
LINE
8
CentreLine
10
133.21
20
 98.96
30
  5.64
11
131.86
21
 98.57
31
  5.88
0
LINE
8
CentreLine
10
133.21
20
 98.96
30
  5.64
11
131.86
21
 98.57
31
  5.88
0
LINE
8
CentreLine
10
133.21
20
 98.96
30
  5.64
11
132.75
21
 98.82
31
  5.73
0
LINE
8
CentreLine
10
133.21
20
 98.96
30
  5.64
11
131.87
21
 98.56
31
  5.88
0
LINE
8
CentreLine
10
131.87
20
 98.56
30
  5.88
11
131.49
21
 98.53
31
  5.39
0
LINE
8
CentreLine
10
131.87
20
 98.56
30
  5.88
11
131.90
21
 99.12
31
  5.88
0
LINE
8
CentreLine
10
131.87
20
 98.56
30
  5.88
11
132.01
21
 98.86
31
  6.27
0
LINE
8
CentreLine
10
131.87
20
 98.56
30
  5.88
11
131.01
21
 98.64
31
  5.91
0
LINE
8
CentreLine
10
131.87
20
 98.56
30
  5.88
11
130.80
21
 98.50
31
  5.99
0
LINE
8
CentreLine
10
131.87
20
 98.56
30
  5.88
11
131.16
21
 98.57
31
  6.33
0
LINE
8
CentreLine
10
131.87
20
 98.56
30
  5.88
11
130.86
21
 99.05
31
  6.54
0
LINE
8
CentreLine
10
131.87
20
 98.56
30
  5.88
11
130.99
21
 99.41
31
  6.83
0
LINE
8
CentreLine
10
131.87
20
 98.56
30
  5.88
11
131.79
21
 99.14
31
  6.60
0
LINE
8
CentreLine
10
131.87
20
 98.56
30
  5.88
11
131.93
21
 99.40
31
  6.44
0
LINE
8
CentreLine
10
131.87
20
 98.56
30
  5.88
11
131.04
21
 99.45
31
  6.83
0
LINE
8
CentreLine
10
133.42
20
 98.28
30
  2.96
11
133.49
21
 97.17
31
  2.86
0
LINE
8
CentreLine
10
133.42
20
 98.28
30
  2.96
11
132.04
21
 97.97
31
  4.22
0
LINE
8
CentreLine
10
133.42
20
 98.28
30
  2.96
11
131.77
21
 97.96
31
  3.53
0
LINE
8
CentreLine
10
133.42
20
 98.28
30
  2.96
11
132.25
21
 98.36
31
  4.45
0
LINE
8
CentreLine
10
133.42
20
 98.28
30
  2.96
11
132.83
21
 98.43
31
  5.38
0
LINE
8
CentreLine
10
133.42
20
 98.28
30
  2.96
11
132.37
21
 98.29
31
  4.76
0
LINE
8
CentreLine
10
133.42
20
 98.28
30
  2.96
11
133.67
21
 98.33
31
  4.79
0
LINE
8
CentreLine
10
133.42
20
 98.28
30
  2.96
11
133.96
21
 98.18
31
  4.21
0
LINE
8
CentreLine
10
132.09
20
 97.46
30
  2.97
11
131.85
21
 97.31
31
  2.56
0
LINE
8
CentreLine
10
132.09
20
 97.46
30
  2.97
11
132.11
21
 97.02
31
  3.01
0
LINE
8
CentreLine
10
132.09
20
 97.46
30
  2.97
11
131.98
21
 97.15
31
  3.85
0
LINE
8
CentreLine
10
132.09
20
 97.46
30
  2.97
11
131.51
21
 96.70
31
  3.17
0
LINE
8
CentreLine
10
131.31
20
 96.65
30
  3.61
11
131.21
21
 96.64
31
  3.05
0
LINE
8
CentreLine
10
131.31
20
 96.65
30
  3.61
11
131.41
21
 96.28
31
  3.51
0
LINE
8
CentreLine
10
131.31
20
 96.65
30
  3.61
11
131.39
21
 97.53
31
  3.65
0
LINE
8
CentreLine
10
130.03
20
 96.03
30
  3.87
11
129.81
21
 95.88
31
  3.02
0
LINE
8
CentreLine
10
130.03
20
 96.03
30
  3.87
11
129.78
21
 95.23
31
  3.41
0
LINE
8
CentreLine
10
130.03
20
 96.03
30
  3.87
11
130.00
21
 96.50
31
  3.63
0
LINE
8
CentreLine
10
133.42
20
 98.28
30
  2.96
11
133.06
21
 97.94
31
  4.30
0
LINE
8
CentreLine
10
133.06
20
 97.94
30
  4.30
11
131.95
21
 98.35
31
  3.90
0
LINE
8
CentreLine
10
133.06
20
 97.94
30
  4.30
11
131.35
21
 98.72
31
  3.81
0
LINE
8
CentreLine
10
133.06
20
 97.94
30
  4.30
11
131.25
21
 99.10
31
  4.22
0
LINE
8
CentreLine
10
133.06
20
 97.94
30
  4.30
11
131.38
21
 98.70
31
  4.54
0
LINE
8
CentreLine
10
133.06
20
 97.94
30
  4.30
11
132.24
21
 98.26
31
  4.47
0
LINE
8
CentreLine
10
133.06
20
 97.94
30
  4.30
11
131.30
21
 99.35
31
  4.36
0
LINE
8
CentreLine
10
133.06
20
 97.94
30
  4.30
11
131.60
21
100.03
31
  4.80
0
LINE
8
CentreLine
10
133.06
20
 97.94
30
  4.30
11
132.54
21
 99.95
31
  4.73
0
LINE
8
CentreLine
10
133.06
20
 97.94
30
  4.30
11
133.12
21
102.03
31
  4.71
0
LINE
8
CentreLine
10
130.03
20
 96.03
30
  3.87
11
130.03
21
 96.08
31
  3.51
0
LINE
8
CentreLine
10
130.03
20
 96.03
30
  3.87
11
129.90
21
 95.14
31
  3.79
0
LINE
8
CentreLine
10
130.03
20
 96.03
30
  3.87
11
130.09
21
 95.88
31
  4.16
0
LINE
8
CentreLine
10
127.46
20
 94.96
30
  3.47
11
127.64
21
 95.00
31
  4.23
0
LINE
8
CentreLine
10
127.46
20
 94.96
30
  3.47
11
127.47
21
 94.22
31
  3.67
0
LINE
8
CentreLine
10
127.46
20
 94.96
30
  3.47
11
127.45
21
 96.06
31
  4.35
0
LINE
8
CentreLine
10
125.03
20
 94.49
30
  4.05
11
125.06
21
 94.50
31
  3.28
0
LINE
8
CentreLine
10
125.03
20
 94.49
30
  4.05
11
125.02
21
 94.81
31
  3.78
0
LINE
8
CentreLine
10
125.03
20
 94.49
30
  4.05
11
125.11
21
 93.72
31
  3.56
0
LINE
8
CentreLine
10
122.94
20
 94.36
30
  3.87
11
123.09
21
 94.37
31
  4.40
0
LINE
8
CentreLine
10
122.94
20
 94.36
30
  3.87
11
122.99
21
 95.12
31
  4.75
0
LINE
8
CentreLine
10
122.94
20
 94.36
30
  3.87
11
122.84
21
 93.80
31
  3.31
0
LINE
8
CentreLine
10
122.94
20
 94.36
30
  3.87
11
123.03
21
 93.68
31
  4.20
0
LINE
8
CentreLine
10
121.20
20
 94.46
30
  4.82
11
120.97
21
 94.34
31
  4.29
0
LINE
8
CentreLine
10
121.20
20
 94.46
30
  4.82
11
120.79
21
 93.72
31
  3.94
0
LINE
8
CentreLine
10
121.20
20
 94.46
30
  4.82
11
120.89
21
 93.46
31
  4.24
0
LINE
8
CentreLine
10
121.20
20
 94.46
30
  4.82
11
121.26
21
 94.86
31
  4.80
0
LINE
8
CentreLine
10
121.20
20
 94.46
30
  4.82
11
121.02
21
 94.56
31
  4.46
0
LINE
8
CentreLine
10
119.75
20
 94.40
30
  5.46
11
119.75
21
 94.52
31
  5.02
0
LINE
8
CentreLine
10
119.75
20
 94.40
30
  5.46
11
119.83
21
 94.74
31
  5.77
0
LINE
8
CentreLine
10
119.75
20
 94.40
30
  5.46
11
119.61
21
 93.53
31
  5.02
0
LINE
8
CentreLine
10
119.75
20
 94.40
30
  5.46
11
119.59
21
 93.51
31
  4.33
0
LINE
8
CentreLine
10
118.67
20
 94.45
30
  4.55
11
118.94
21
 94.18
31
  4.93
0
LINE
8
CentreLine
10
118.67
20
 94.45
30
  4.55
11
119.23
21
 94.67
31
  5.45
0
LINE
8
CentreLine
10
118.67
20
 94.45
30
  4.55
11
118.92
21
 94.78
31
  5.08
0
LINE
8
CentreLine
10
118.67
20
 94.45
30
  4.55
11
118.33
21
 93.57
31
  3.94
0
LINE
8
CentreLine
10
118.67
20
 94.45
30
  4.55
11
118.74
21
 93.53
31
  4.63
0
LINE
8
CentreLine
10
118.04
20
 94.24
30
  5.61
11
117.69
21
 94.37
31
  4.78
0
LINE
8
CentreLine
10
118.04
20
 94.24
30
  5.61
11
117.78
21
 93.51
31
  5.37
0
LINE
8
CentreLine
10
118.04
20
 94.24
30
  5.61
11
117.90
21
 94.31
31
  5.92
0
LINE
8
CentreLine
10
118.04
20
 94.24
30
  5.61
11
117.98
21
 94.78
31
  5.63
0
LINE
8
CentreLine
10
118.04
20
 94.24
30
  5.61
11
117.23
21
 93.20
31
  5.58
0
LINE
8
CentreLine
10
118.04
20
 94.24
30
  5.61
11
117.66
21
 93.40
31
  4.92
0
LINE
8
CentreLine
10
115.45
20
 94.62
30
  5.93
11
115.55
21
 94.50
31
  5.10
0
LINE
8
CentreLine
10
115.45
20
 94.62
30
  5.93
11
115.35
21
 93.26
31
  5.59
0
LINE
8
CentreLine
10
115.45
20
 94.62
30
  5.93
11
115.49
21
 94.95
31
  5.27
0
LINE
8
CentreLine
10
115.49
20
 93.74
30
  5.68
11
115.61
21
 93.74
31
  5.11
0
LINE
8
CentreLine
10
115.49
20
 93.74
30
  5.68
11
116.72
21
 92.35
31
  5.32
0
LINE
8
CentreLine
10
115.49
20
 93.74
30
  5.68
11
114.17
21
 93.18
31
  5.08
0
LINE
8
CentreLine
10
115.49
20
 93.74
30
  5.68
11
115.31
21
 93.03
31
  4.83
0
LINE
8
CentreLine
10
115.49
20
 93.74
30
  5.68
11
115.49
21
 85.85
31
  3.48
0
LINE
8
CentreLine
10
115.49
20
 85.85
30
  3.48
11
115.93
21
 86.02
31
  3.18
0
LINE
8
CentreLine
10
115.49
20
 85.85
30
  3.48
11
116.71
21
 86.33
31
  3.84
0
LINE
8
CentreLine
10
115.49
20
 85.85
30
  3.48
11
113.76
21
 93.78
31
  4.87
0
LINE
8
CentreLine
10
115.49
20
 85.85
30
  3.48
11
118.01
21
 85.06
31
  3.76
0
LINE
8
CentreLine
10
115.49
20
 85.85
30
  3.48
11
117.94
21
 85.10
31
  3.73
0
LINE
8
CentreLine
10
115.49
20
 85.85
30
  3.48
11
118.00
21
 85.10
31
  3.75
0
LINE
8
CentreLine
10
115.49
20
 85.85
30
  3.48
11
114.58
21
 85.85
31
  2.36
0
LINE
8
CentreLine
10
114.58
20
 85.85
30
  2.36
11
114.43
21
 85.77
31
  2.87
0
LINE
8
CentreLine
10
114.58
20
 85.85
30
  2.36
11
114.34
21
 84.89
31
  2.39
0
LINE
8
CentreLine
10
114.58
20
 85.85
30
  2.36
11
113.20
21
 85.77
31
  2.60
0
LINE
8
CentreLine
10
113.20
20
 85.77
30
  2.60
11
113.33
21
 85.80
31
  1.94
0
LINE
8
CentreLine
10
113.20
20
 85.77
30
  2.60
11
113.46
21
 84.72
31
  1.96
0
LINE
8
CentreLine
10
113.20
20
 85.77
30
  2.60
11
111.56
21
 86.62
31
  2.52
0
LINE
8
CentreLine
10
111.56
20
 86.62
30
  2.52
11
111.66
21
 86.70
31
  2.07
0
LINE
8
CentreLine
10
111.56
20
 86.62
30
  2.52
11
111.54
21
 85.88
31
  2.18
0
LINE
8
CentreLine
10
111.56
20
 86.62
30
  2.52
11
112.51
21
 91.31
31
  4.23
0
LINE
8
CentreLine
10
111.56
20
 86.62
30
  2.52
11
111.59
21
 91.19
31
  4.02
0
LINE
8
CentreLine
10
111.56
20
 86.62
30
  2.52
11
110.26
21
 91.88
31
  4.01
0
LINE
8
CentreLine
10
111.56
20
 86.62
30
  2.52
11
109.09
21
 91.79
31
  3.84
0
LINE
8
CentreLine
10
111.56
20
 86.62
30
  2.52
11
109.71
21
 89.70
31
  3.10
0
LINE
8
CentreLine
10
111.56
20
 86.62
30
  2.52
11
109.26
21
 89.00
31
  2.46
0
LINE
8
CentreLine
10
111.56
20
 86.62
30
  2.52
11
110.57
21
 86.81
31
  2.28
0
LINE
8
CentreLine
10
110.57
20
 86.81
30
  2.28
11
110.81
21
 86.89
31
  1.76
0
LINE
8
CentreLine
10
110.57
20
 86.81
30
  2.28
11
110.64
21
 85.91
31
  1.82
0
LINE
8
CentreLine
10
110.57
20
 86.81
30
  2.28
11
109.42
21
 86.53
31
  1.71
0
LINE
8
CentreLine
10
109.42
20
 86.53
30
  1.71
11
109.67
21
 86.50
31
  1.05
0
LINE
8
CentreLine
10
109.42
20
 86.53
30
  1.71
11
108.65
21
 86.75
31
  1.10
0
LINE
8
CentreLine
10
109.42
20
 86.53
30
  1.71
11
108.10
21
 87.62
31
  1.45
0
LINE
8
CentreLine
10
109.42
20
 86.53
30
  1.71
11
108.28
21
 88.53
31
  1.95
0
LINE
8
CentreLine
10
109.42
20
 86.53
30
  1.71
11
109.58
21
 85.61
31
  0.88
0
LINE
8
CentreLine
10
109.58
20
 85.61
30
  0.88
11
109.41
21
 85.43
31
  1.32
0
LINE
8
CentreLine
10
109.58
20
 85.61
30
  0.88
11
108.82
21
 85.18
31
  0.75
0
LINE
8
CentreLine
10
109.58
20
 85.61
30
  0.88
11
110.32
21
 85.55
31
  1.19
0
LINE
8
CentreLine
10
109.58
20
 85.61
30
  0.88
11
109.89
21
 83.67
31
  0.73
0
LINE
8
CentreLine
10
109.58
20
 85.61
30
  0.88
11
109.48
21
 84.19
31
  0.83
0
LINE
8
CentreLine
10
109.48
20
 84.19
30
  0.83
11
109.59
21
 84.18
31
  0.29
0
LINE
8
CentreLine
10
109.48
20
 84.19
30
  0.83
11
109.63
21
 83.48
31
  0.53
0
LINE
8
CentreLine
10
109.48
20
 84.19
30
  0.83
11
108.84
21
 83.46
31
  0.58
0
LINE
8
CentreLine
10
108.84
20
 83.46
30
  0.58
11
108.97
21
 83.47
31
  0.05
0
LINE
8
CentreLine
10
108.84
20
 83.46
30
  0.58
11
108.93
21
 82.86
31
  0.22
0
LINE
8
CentreLine
10
108.84
20
 83.46
30
  0.58
11
108.59
21
 84.22
31
  0.50
0
LINE
8
CentreLine
10
108.84
20
 83.46
30
  0.58
11
108.26
21
 83.18
31
  0.43
0
LINE
8
CentreLine
10
108.26
20
 83.18
30
  0.43
11
108.32
21
 83.30
31
  0.00
0
LINE
8
CentreLine
10
108.26
20
 83.18
30
  0.43
11
108.33
21
 82.76
31
  0.21
0
LINE
8
CentreLine
10
108.26
20
 83.18
30
  0.43
11
108.22
21
 83.58
31
  0.33
0
LINE
8
CentreLine
10
108.26
20
 83.18
30
  0.43
11
106.53
21
 82.89
31
  0.12
0
LINE
8
CentreLine
10
114.32
20
 93.84
30
  5.62
11
114.51
21
 94.16
31
  5.01
0
LINE
8
CentreLine
10
114.32
20
 93.84
30
  5.62
11
114.34
21
 94.03
31
  6.76
0
LINE
8
CentreLine
10
114.32
20
 93.84
30
  5.62
11
113.69
21
102.27
31
  7.30
0
LINE
8
CentreLine
10
113.80
20
 94.12
30
  6.17
11
113.56
21
 94.24
31
  5.99
0
LINE
8
CentreLine
10
113.80
20
 94.12
30
  6.17
11
114.31
21
 94.18
31
  6.84
0
LINE
8
CentreLine
10
113.80
20
 94.12
30
  6.17
11
113.91
21
 93.86
31
  6.46
0
LINE
8
CentreLine
10
113.80
20
 94.12
30
  6.17
11
113.88
21
 95.25
31
  6.59
0
LINE
8
CentreLine
10
112.06
20
 94.68
30
  8.26
11
111.87
21
 94.71
31
  7.70
0
LINE
8
CentreLine
10
112.06
20
 94.68
30
  8.26
11
112.12
21
 93.76
31
  7.86
0
LINE
8
CentreLine
10
112.06
20
 94.68
30
  8.26
11
111.94
21
 94.99
31
  8.11
0
LINE
8
CentreLine
10
110.24
20
 94.48
30
  8.96
11
110.70
21
 94.43
31
  9.37
0
LINE
8
CentreLine
10
110.24
20
 94.48
30
  8.96
11
110.34
21
 93.76
31
  9.20
0
LINE
8
CentreLine
10
110.24
20
 94.48
30
  8.96
11
110.47
21
 95.13
31
  9.50
0
LINE
8
CentreLine
10
109.29
20
 94.21
30
  9.58
11
109.94
21
 94.25
31
 10.15
0
LINE
8
CentreLine
10
109.29
20
 94.21
30
  9.58
11
109.48
21
 93.72
31
  9.79
0
LINE
8
CentreLine
10
109.29
20
 94.21
30
  9.58
11
109.01
21
 93.74
31
  9.03
0
LINE
8
CentreLine
10
109.29
20
 94.21
30
  9.58
11
109.76
21
 95.26
31
 10.40
0
LINE
8
CentreLine
10
109.29
20
 94.21
30
  9.58
11
107.82
21
 92.58
31
 10.09
0
LINE
8
CentreLine
10
109.29
20
 94.21
30
  9.58
11
107.72
21
 92.48
31
 10.11
0
LINE
8
CentreLine
10
109.29
20
 94.21
30
  9.58
11
107.83
21
 92.58
31
 10.09
0
LINE
8
CentreLine
10
108.66
20
 94.92
30
 11.72
11
108.00
21
 94.93
31
 11.32
0
LINE
8
CentreLine
10
108.66
20
 94.92
30
 11.72
11
108.33
21
 94.10
31
 11.57
0
LINE
8
CentreLine
10
108.66
20
 94.92
30
 11.72
11
108.51
21
 95.41
31
 11.61
0
LINE
8
CentreLine
10
107.83
20
 95.59
30
 13.07
11
108.03
21
 95.56
31
 13.30
0
LINE
8
CentreLine
10
107.83
20
 95.59
30
 13.07
11
107.49
21
 95.43
31
 12.68
0
LINE
8
CentreLine
10
107.83
20
 95.59
30
 13.07
11
107.82
21
 95.03
31
 12.97
0
LINE
8
CentreLine
10
106.77
20
 96.24
30
 13.63
11
107.09
21
 96.34
31
 14.13
0
LINE
8
CentreLine
10
106.77
20
 96.24
30
 13.63
11
106.77
21
 95.72
31
 14.05
0
LINE
8
CentreLine
10
106.77
20
 96.24
30
 13.63
11
106.95
21
 97.06
31
 14.11
0
LINE
8
CentreLine
10
106.77
20
 96.24
30
 13.63
11
107.03
21
 99.68
31
 13.63
0
LINE
8
CentreLine
10
105.79
20
 97.05
30
 13.89
11
105.99
21
 95.84
31
 14.55
0
LINE
8
CentreLine
10
105.79
20
 97.05
30
 13.89
11
106.79
21
 96.89
31
 14.55
0
LINE
8
CentreLine
10
105.79
20
 97.05
30
 13.89
11
106.22
21
 97.81
31
 13.29
0
LINE
8
CentreLine
10
105.79
20
 97.05
30
 13.89
11
103.21
21
 96.36
31
 14.36
0
LINE
8
CentreLine
10
103.75
20
 96.49
30
 14.27
11
103.17
21
 96.49
31
 13.16
0
LINE
8
CentreLine
10
103.75
20
 96.49
30
 14.27
11
103.77
21
 95.97
31
 13.80
0
LINE
8
CentreLine
10
103.75
20
 96.49
30
 14.27
11
102.84
21
 96.39
31
 13.34
0
LINE
8
CentreLine
10
103.75
20
 96.49
30
 14.27
11
102.13
21
 96.19
31
 13.59
0
LINE
8
CentreLine
10
103.75
20
 96.49
30
 14.27
11
101.62
21
 96.06
31
 14.18
0
LINE
8
CentreLine
10
103.75
20
 96.49
30
 14.27
11
101.96
21
 96.16
31
 14.93
0
LINE
8
CentreLine
10
103.75
20
 96.49
30
 14.27
11
103.02
21
 96.18
31
 15.03
0
LINE
8
CentreLine
10
103.75
20
 96.49
30
 14.27
11
102.44
21
 96.80
31
 14.79
0
LINE
8
CentreLine
10
103.75
20
 96.49
30
 14.27
11
102.24
21
 96.75
31
 13.77
0
LINE
8
CentreLine
10
103.75
20
 96.49
30
 14.27
11
106.09
21
 96.57
31
 13.14
0
LINE
8
CentreLine
10
103.75
20
 96.49
30
 14.27
11
105.68
21
 97.27
31
 12.88
0
LINE
8
CentreLine
10
103.75
20
 96.49
30
 14.27
11
105.35
21
 97.06
31
 12.44
0
LINE
8
CentreLine
10
103.75
20
 96.49
30
 14.27
11
104.34
21
 96.93
31
 13.33
0
LINE
8
CentreLine
10
103.75
20
 96.49
30
 14.27
11
104.87
21
 97.37
31
 12.59
0
LINE
8
CentreLine
10
103.75
20
 96.49
30
 14.27
11
103.55
21
 96.64
31
 13.05
0
LINE
8
CentreLine
10
103.75
20
 96.49
30
 14.27
11
103.86
21
105.81
31
 13.28
0
LINE
8
CentreLine
10
103.75
20
 96.49
30
 14.27
11
103.87
21
105.79
31
 13.27
0
LINE
8
CentreLine
10
103.75
20
 96.49
30
 14.27
11
103.88
21
105.42
31
 13.29
0
LINE
8
CentreLine
10
103.75
20
 96.49
30
 14.27
11
103.89
21
105.39
31
 13.30
0
LINE
8
CentreLine
10
103.75
20
 96.49
30
 14.27
11
103.88
21
105.85
31
 13.25
0
LINE
8
CentreLine
10
103.88
20
105.79
30
 13.28
11
103.67
21
105.82
31
 13.22
0
LINE
8
CentreLine
10
103.88
20
105.79
30
 13.28
11
103.34
21
105.85
31
 13.58
0
LINE
8
CentreLine
10
103.88
20
105.79
30
 13.28
11
102.78
21
106.05
31
 14.85
0
LINE
8
CentreLine
10
103.88
20
105.79
30
 13.28
11
104.50
21
105.82
31
 14.36
0
LINE
8
CentreLine
10
103.88
20
105.79
30
 13.28
11
104.74
21
106.11
31
 13.88
0
LINE
8
CentreLine
10
105.71
20
109.73
30
 13.47
11
106.00
21
109.88
31
 14.09
0
LINE
8
CentreLine
10
105.71
20
109.73
30
 13.47
11
105.37
21
109.93
31
 13.10
0
LINE
8
CentreLine
10
105.71
20
109.73
30
 13.47
11
104.83
21
109.80
31
 14.50
0
LINE
8
CentreLine
10
105.71
20
109.73
30
 13.47
11
105.34
21
109.78
31
 13.54
0
LINE
8
CentreLine
10
108.89
20
126.99
30
 16.59
11
108.89
21
130.29
31
 16.59
0
LINE
8
CentreLine
10
108.66
20
124.90
30
 16.59
11
109.46
21
124.94
31
 16.97
0
LINE
8
CentreLine
10
108.66
20
124.90
30
 16.59
11
109.32
21
124.59
31
 16.03
0
LINE
8
CentreLine
10
108.66
20
124.90
30
 16.59
11
109.63
21
124.13
31
 16.88
0
LINE
8
CentreLine
10
108.66
20
124.90
30
 16.59
11
108.70
21
125.06
31
 17.14
0
LINE
8
CentreLine
10
108.66
20
124.90
30
 16.59
11
108.42
21
124.66
31
 17.31
0
LINE
8
CentreLine
10
108.66
20
124.90
30
 16.59
11
107.95
21
124.48
31
 17.20
0
LINE
8
CentreLine
10
108.52
20
124.49
30
 16.45
11
107.80
21
124.45
31
 17.04
0
LINE
8
CentreLine
10
108.52
20
124.49
30
 16.45
11
108.16
21
124.42
31
 16.44
0
LINE
8
CentreLine
10
108.52
20
124.49
30
 16.45
11
107.57
21
123.85
31
 17.14
0
LINE
8
CentreLine
10
108.52
20
124.49
30
 16.45
11
109.38
21
124.48
31
 16.04
0
LINE
8
CentreLine
10
108.52
20
124.49
30
 16.45
11
109.27
21
124.08
31
 16.06
0
LINE
8
CentreLine
10
108.52
20
124.49
30
 16.45
11
109.32
21
124.38
31
 17.14
0
LINE
8
CentreLine
10
108.52
20
124.49
30
 16.45
11
109.69
21
124.48
31
 16.86
0
LINE
8
CentreLine
10
108.52
20
124.49
30
 16.45
11
108.37
21
124.40
31
 17.30
0
LINE
8
CentreLine
10
108.10
20
123.55
30
 15.95
11
109.40
21
123.54
31
 15.94
0
LINE
8
CentreLine
10
108.10
20
123.55
30
 15.95
11
108.79
21
123.47
31
 16.88
0
LINE
8
CentreLine
10
108.10
20
123.55
30
 15.95
11
108.78
21
123.85
31
 16.89
0
LINE
8
CentreLine
10
108.10
20
123.55
30
 15.95
11
108.98
21
124.42
31
 17.20
0
LINE
8
CentreLine
10
108.10
20
123.55
30
 15.95
11
108.82
21
124.92
31
 17.27
0
LINE
8
CentreLine
10
108.10
20
123.55
30
 15.95
11
109.16
21
124.85
31
 16.59
0
LINE
8
CentreLine
10
108.10
20
123.55
30
 15.95
11
109.59
21
124.03
31
 16.03
0
LINE
8
CentreLine
10
108.10
20
123.55
30
 15.95
11
106.50
21
123.27
31
 17.09
0
LINE
8
CentreLine
10
108.10
20
123.55
30
 15.95
11
107.10
21
124.24
31
 17.18
0
LINE
8
CentreLine
10
108.10
20
123.55
30
 15.95
11
107.33
21
124.61
31
 17.30
0
LINE
8
CentreLine
10
108.10
20
123.55
30
 15.95
11
107.44
21
124.43
31
 17.78
0
LINE
8
CentreLine
10
108.10
20
123.55
30
 15.95
11
106.16
21
122.18
31
 17.27
0
LINE
8
CentreLine
10
108.10
20
123.55
30
 15.95
11
106.47
21
121.51
31
 17.58
0
LINE
8
CentreLine
10
108.10
20
123.55
30
 15.95
11
106.09
21
121.72
31
 16.70
0
LINE
8
CentreLine
10
108.10
20
123.55
30
 15.95
11
106.05
21
120.45
31
 16.57
0
LINE
8
CentreLine
10
108.10
20
123.55
30
 15.95
11
106.85
21
122.08
31
 17.52
0
LINE
8
CentreLine
10
108.10
20
123.55
30
 15.95
11
107.55
21
122.35
31
 17.35
0
LINE
8
CentreLine
10
108.10
20
123.55
30
 15.95
11
108.92
21
121.42
31
 16.83
0
LINE
8
CentreLine
10
108.10
20
123.55
30
 15.95
11
108.50
21
120.11
31
 16.05
0
LINE
8
CentreLine
10
108.10
20
123.55
30
 15.95
11
109.21
21
121.42
31
 15.69
0
LINE
8
CentreLine
10
108.10
20
123.55
30
 15.95
11
106.29
21
119.03
31
 16.04
0
LINE
8
CentreLine
10
108.10
20
123.55
30
 15.95
11
107.05
21
119.20
31
 16.13
0
LINE
8
CentreLine
10
108.10
20
123.55
30
 15.95
11
106.39
21
118.73
31
 15.82
0
LINE
8
CentreLine
10
108.10
20
123.55
30
 15.95
11
107.89
21
120.73
31
 17.56
0
LINE
8
CentreLine
10
107.82
20
119.24
30
 15.96
11
106.20
21
119.84
31
 16.14
0
LINE
8
CentreLine
10
107.82
20
119.24
30
 15.96
11
108.14
21
121.08
31
 17.13
0
LINE
8
CentreLine
10
107.82
20
119.24
30
 15.96
11
109.26
21
119.71
31
 15.22
0
LINE
8
CentreLine
10
107.82
20
119.24
30
 15.96
11
108.99
21
120.93
31
 15.55
0
LINE
8
CentreLine
10
107.82
20
119.24
30
 15.96
11
105.97
21
120.88
31
 16.29
0
LINE
8
CentreLine
10
107.82
20
119.24
30
 15.96
11
106.56
21
119.17
31
 15.58
0
LINE
8
CentreLine
10
107.82
20
119.24
30
 15.96
11
106.85
21
119.31
31
 14.96
0
LINE
8
CentreLine
10
107.82
20
119.24
30
 15.96
11
108.30
21
119.47
31
 14.43
0
LINE
8
CentreLine
10
107.82
20
119.24
30
 15.96
11
107.79
21
119.24
31
 14.38
0
LINE
8
CentreLine
10
107.82
20
119.24
30
 15.96
11
109.14
21
119.54
31
 14.72
0
LINE
8
CentreLine
10
107.42
20
118.90
30
 15.80
11
106.51
21
118.18
31
 16.02
0
LINE
8
CentreLine
10
107.42
20
118.90
30
 15.80
11
106.94
21
118.81
31
 14.88
0
LINE
8
CentreLine
10
107.42
20
118.90
30
 15.80
11
107.56
21
118.83
31
 14.27
0
LINE
8
CentreLine
10
107.42
20
118.90
30
 15.80
11
108.38
21
118.95
31
 14.35
0
LINE
8
CentreLine
10
107.42
20
118.90
30
 15.80
11
108.99
21
118.95
31
 14.72
0
LINE
8
CentreLine
10
107.42
20
118.90
30
 15.80
11
107.89
21
118.64
31
 14.44
0
LINE
8
CentreLine
10
107.42
20
118.90
30
 15.80
11
106.80
21
116.70
31
 14.67
0
LINE
8
CentreLine
10
107.42
20
118.90
30
 15.80
11
106.35
21
116.54
31
 15.68
0
LINE
8
CentreLine
10
107.42
20
118.90
30
 15.80
11
108.94
21
118.10
31
 14.35
0
LINE
8
CentreLine
10
107.42
20
118.90
30
 15.80
11
108.83
21
116.69
31
 14.16
0
LINE
8
CentreLine
10
107.42
20
118.90
30
 15.80
11
109.39
21
116.88
31
 14.85
0
LINE
8
CentreLine
10
107.42
20
118.90
30
 15.80
11
108.65
21
115.11
31
 14.72
0
LINE
8
CentreLine
10
107.42
20
118.90
30
 15.80
11
108.65
21
114.52
31
 13.89
0
LINE
8
CentreLine
10
107.42
20
118.90
30
 15.80
11
107.47
21
117.82
31
 14.30
0
LINE
8
CentreLine
10
107.42
20
118.90
30
 15.80
11
107.47
21
116.08
31
 13.94
0
LINE
8
CentreLine
10
107.57
20
111.79
30
 14.14
11
106.75
21
114.93
31
 14.51
0
LINE
8
CentreLine
10
107.57
20
111.79
30
 14.14
11
108.80
21
116.14
31
 14.02
0
LINE
8
CentreLine
10
107.57
20
111.79
30
 14.14
11
108.14
21
114.09
31
 13.33
0
LINE
8
CentreLine
10
107.57
20
111.79
30
 14.14
11
107.42
21
115.48
31
 13.80
0
LINE
8
CentreLine
10
107.57
20
111.79
30
 14.14
11
107.18
21
114.39
31
 13.41
0
LINE
8
CentreLine
10
107.57
20
111.79
30
 14.14
11
107.09
21
113.51
31
 13.11
0
LINE
8
CentreLine
10
107.57
20
111.79
30
 14.14
11
106.40
21
113.47
31
 13.78
0
LINE
8
CentreLine
10
107.57
20
111.79
30
 14.14
11
106.31
21
113.09
31
 14.22
0
LINE
8
CentreLine
10
107.57
20
111.79
30
 14.14
11
105.94
21
112.27
31
 14.21
0
LINE
8
CentreLine
10
107.57
20
111.79
30
 14.14
11
105.86
21
111.84
31
 14.13
0
LINE
8
CentreLine
10
107.57
20
111.79
30
 14.14
11
105.99
21
111.13
31
 14.02
0
LINE
8
CentreLine
10
107.57
20
111.79
30
 14.14
11
105.93
21
112.51
31
 13.44
0
LINE
8
CentreLine
10
107.57
20
111.79
30
 14.14
11
106.76
21
112.19
31
 12.62
0
LINE
8
CentreLine
10
107.57
20
111.79
30
 14.14
11
107.82
21
112.50
31
 12.57
0
LINE
8
CentreLine
10
107.57
20
111.79
30
 14.14
11
107.30
21
111.18
31
 12.40
0
LINE
8
CentreLine
10
107.57
20
111.79
30
 14.14
11
106.92
21
110.82
31
 12.71
0
LINE
8
CentreLine
10
107.57
20
111.79
30
 14.14
11
106.20
21
110.86
31
 13.61
0
LINE
8
CentreLine
10
106.76
20
110.75
30
 12.88
11
107.49
21
110.79
31
 14.21
0
LINE
8
CentreLine
10
106.76
20
110.75
30
 12.88
11
107.76
21
110.69
31
 12.53
0
LINE
8
CentreLine
10
106.76
20
110.75
30
 12.88
11
106.90
21
108.77
31
 13.17
0
LINE
8
CentreLine
10
106.76
20
110.75
30
 12.88
11
107.46
21
109.48
31
 12.62
0
LINE
8
CentreLine
10
106.76
20
110.75
30
 12.88
11
107.66
21
110.37
31
 13.74
0
LINE
8
CentreLine
10
106.76
20
110.75
30
 12.88
11
106.94
21
110.56
31
 14.62
0
LINE
8
CentreLine
10
106.76
20
110.75
30
 12.88
11
106.02
21
111.12
31
 14.50
0
LINE
8
CentreLine
10
106.76
20
110.75
30
 12.88
11
105.89
21
111.34
31
 14.49
0
LINE
8
CentreLine
10
106.76
20
110.75
30
 12.88
11
107.79
21
109.95
31
 13.15
0
LINE
8
CentreLine
10
107.79
20
109.95
30
 13.15
11
107.65
21
109.42
31
 12.86
0
LINE
8
CentreLine
10
107.79
20
109.95
30
 13.15
11
107.39
21
110.64
31
 12.55
0
LINE
8
CentreLine
10
107.79
20
109.95
30
 13.15
11
107.94
21
110.07
31
 12.20
0
LINE
8
CentreLine
10
107.79
20
109.95
30
 13.15
11
106.91
21
109.89
31
 12.48
0
LINE
8
CentreLine
10
107.79
20
109.95
30
 13.15
11
107.46
21
110.33
31
 11.65
0
LINE
8
CentreLine
10
107.79
20
109.95
30
 13.15
11
107.45
21
110.34
31
 11.65
0
LINE
8
CentreLine
10
107.79
20
109.95
30
 13.15
11
107.44
21
110.35
31
 11.60
0
LINE
8
CentreLine
10
107.79
20
109.95
30
 13.15
11
107.45
21
110.27
31
 11.65
0
LINE
8
CentreLine
10
107.45
20
110.27
30
 11.65
11
107.09
21
110.22
31
 11.71
0
LINE
8
CentreLine
10
107.45
20
110.27
30
 11.65
11
107.37
21
110.46
31
 11.61
0
LINE
8
CentreLine
10
107.45
20
110.27
30
 11.65
11
107.40
21
109.21
31
 11.78
0
LINE
8
CentreLine
10
107.45
20
110.27
30
 11.65
11
106.40
21
109.70
31
  9.24
0
LINE
8
CentreLine
10
106.40
20
109.70
30
  9.24
11
106.52
21
109.10
31
  9.33
0
LINE
8
CentreLine
10
106.40
20
109.70
30
  9.24
11
107.73
21
109.65
31
  9.39
0
LINE
8
CentreLine
10
106.40
20
109.70
30
  9.24
11
107.10
21
109.67
31
  8.86
0
LINE
8
CentreLine
10
106.40
20
109.70
30
  9.24
11
106.69
21
110.02
31
  9.00
0
LINE
8
CentreLine
10
106.40
20
109.70
30
  9.24
11
106.20
21
109.39
31
  7.75
0
LINE
8
CentreLine
10
106.20
20
109.39
30
  7.75
11
105.50
21
109.33
31
  8.23
0
LINE
8
CentreLine
10
106.20
20
109.39
30
  7.75
11
106.03
21
109.04
31
  7.93
0
LINE
8
CentreLine
10
106.20
20
109.39
30
  7.75
11
106.05
21
109.80
31
  7.78
0
LINE
8
CentreLine
10
106.20
20
109.39
30
  7.75
11
105.79
21
109.60
31
  6.53
0
LINE
8
CentreLine
10
105.79
20
109.60
30
  6.53
11
106.31
21
109.59
31
  6.66
0
LINE
8
CentreLine
10
105.79
20
109.60
30
  6.53
11
105.78
21
108.89
31
  6.56
0
LINE
8
CentreLine
10
105.79
20
109.60
30
  6.53
11
105.07
21
109.35
31
  7.02
0
LINE
8
CentreLine
10
105.79
20
109.60
30
  6.53
11
105.74
21
108.89
31
  6.64
0
LINE
8
CentreLine
10
105.79
20
109.60
30
  6.53
11
101.80
21
110.77
31
  6.33
0
LINE
8
CentreLine
10
101.80
20
110.77
30
  6.33
11
101.90
21
110.80
31
  5.77
0
LINE
8
CentreLine
10
101.80
20
110.77
30
  6.33
11
101.81
21
109.83
31
  5.89
0
LINE
8
CentreLine
10
101.80
20
110.77
30
  6.33
11
101.87
21
111.62
31
  6.13
0
LINE
8
CentreLine
10
101.80
20
110.77
30
  6.33
11
 98.19
21
111.56
31
  5.14
0
LINE
8
CentreLine
10
 98.19
20
111.56
30
  5.14
11
 98.60
21
110.83
31
  5.26
0
LINE
8
CentreLine
10
 98.19
20
111.56
30
  5.14
11
 98.38
21
111.59
31
  4.84
0
LINE
8
CentreLine
10
 98.19
20
111.56
30
  5.14
11
 98.13
21
111.46
31
  5.61
0
LINE
8
CentreLine
10
 98.19
20
111.56
30
  5.14
11
 98.38
21
111.96
31
  5.27
0
LINE
8
CentreLine
10
106.76
20
110.75
30
 12.88
11
106.77
21
108.64
31
 13.48
0
LINE
8
CentreLine
10
106.77
20
108.64
30
 13.48
11
105.19
21
108.62
31
 14.11
0
LINE
8
CentreLine
10
106.77
20
108.64
30
 13.48
11
104.92
21
108.60
31
 13.25
0
LINE
8
CentreLine
10
106.77
20
108.64
30
 13.48
11
105.84
21
108.55
31
 12.65
0
LINE
8
CentreLine
10
106.77
20
108.64
30
 13.48
11
106.14
21
108.60
31
 14.27
0
LINE
8
CentreLine
10
106.77
20
108.64
30
 13.48
11
105.58
21
108.51
31
 14.21
0
LINE
8
CentreLine
10
106.77
20
108.64
30
 13.48
11
103.89
21
106.15
31
 13.95
0
LINE
8
CentreLine
10
109.29
20
 94.21
30
  9.58
11
108.05
21
 93.68
31
 10.30
0
LINE
8
CentreLine
10
108.05
20
 93.68
30
 10.30
11
108.00
21
 93.66
31
  9.95
0
LINE
8
CentreLine
10
108.05
20
 93.68
30
 10.30
11
108.11
21
 93.03
31
 10.11
0
LINE
8
CentreLine
10
108.05
20
 93.68
30
 10.30
11
108.20
21
 93.50
31
 10.48
0
LINE
8
CentreLine
10
108.05
20
 93.68
30
 10.30
11
107.29
21
 92.43
31
 10.67
0
LINE
8
CentreLine
10
107.29
20
 92.43
30
 10.67
11
106.97
21
 92.49
31
 10.37
0
LINE
8
CentreLine
10
107.29
20
 92.43
30
 10.67
11
107.08
21
 91.92
31
 10.45
0
LINE
8
CentreLine
10
107.29
20
 92.43
30
 10.67
11
107.71
21
 92.77
31
 11.17
0
LINE
8
CentreLine
10
107.29
20
 92.43
30
 10.67
11
107.18
21
 93.41
31
 10.99
0
LINE
8
CentreLine
10
107.29
20
 92.43
30
 10.67
11
106.13
21
 92.06
31
 10.84
0
LINE
8
CentreLine
10
107.29
20
 92.43
30
 10.67
11
106.53
21
 92.18
31
 10.79
0
LINE
8
CentreLine
10
107.29
20
 92.43
30
 10.67
11
106.56
21
 92.19
31
 10.78
0
LINE
8
CentreLine
10
107.29
20
 92.43
30
 10.67
11
106.95
21
 92.03
31
 10.28
0
LINE
8
CentreLine
10
107.29
20
 92.43
30
 10.67
11
107.47
21
 91.83
31
 10.74
0
LINE
8
CentreLine
10
107.29
20
 92.43
30
 10.67
11
107.68
21
 92.24
31
 11.00
0
LINE
8
CentreLine
10
107.29
20
 92.43
30
 10.67
11
107.86
21
 93.08
31
 11.46
0
LINE
8
CentreLine
10
107.29
20
 92.43
30
 10.67
11
106.38
21
 91.55
31
 10.75
0
LINE
8
CentreLine
10
106.38
20
 91.55
30
 10.75
11
106.77
21
 91.73
31
 11.33
0
LINE
8
CentreLine
10
106.38
20
 91.55
30
 10.75
11
106.51
21
 91.34
31
 10.65
0
LINE
8
CentreLine
10
106.38
20
 91.55
30
 10.75
11
106.34
21
 91.73
31
 10.87
0
LINE
8
CentreLine
10
106.38
20
 91.55
30
 10.75
11
106.29
21
 91.25
31
 10.94
0
LINE
8
CentreLine
10
106.29
20
 91.25
30
 10.94
11
106.04
21
 91.29
31
 10.80
0
LINE
8
CentreLine
10
106.29
20
 91.25
30
 10.94
11
106.50
21
 91.29
31
 11.18
0
LINE
8
CentreLine
10
106.29
20
 91.25
30
 10.94
11
106.26
21
 91.60
31
 11.09
0
LINE
8
CentreLine
10
106.29
20
 91.25
30
 10.94
11
105.55
21
 91.15
31
 11.41
0
LINE
8
CentreLine
10
105.55
20
 91.15
30
 11.41
11
106.00
21
 91.21
31
 11.91
0
LINE
8
CentreLine
10
105.55
20
 91.15
30
 11.41
11
105.74
21
 90.78
31
 11.52
0
LINE
8
CentreLine
10
105.55
20
 91.15
30
 11.41
11
105.75
21
 91.47
31
 11.43
0
LINE
8
CentreLine
10
105.55
20
 91.15
30
 11.41
11
104.82
21
 91.11
31
 13.05
0
LINE
8
CentreLine
10
104.82
20
 91.11
30
 13.05
11
105.24
21
 90.91
31
 13.23
0
LINE
8
CentreLine
10
104.82
20
 91.11
30
 13.05
11
104.90
21
 90.16
31
 13.10
0
LINE
8
CentreLine
10
104.82
20
 91.11
30
 13.05
11
104.36
21
 90.31
31
 12.82
0
LINE
8
CentreLine
10
104.82
20
 91.11
30
 13.05
11
105.09
21
 91.44
31
 13.13
0
LINE
8
CentreLine
10
104.82
20
 91.11
30
 13.05
11
105.29
21
 90.93
31
 13.84
0
LINE
8
CentreLine
10
105.29
20
 90.93
30
 13.84
11
104.32
21
 90.70
31
 13.90
0
LINE
8
CentreLine
10
105.29
20
 90.93
30
 13.84
11
105.24
21
 91.99
31
 13.87
0
LINE
8
CentreLine
10
105.29
20
 90.93
30
 13.84
11
104.64
21
 91.02
31
 13.95
0
LINE
8
CentreLine
10
105.29
20
 90.93
30
 13.84
11
104.58
21
 89.89
31
 14.09
0
LINE
8
CentreLine
10
105.29
20
 90.93
30
 13.84
11
108.68
21
 91.34
31
 12.69
0
LINE
8
CentreLine
10
105.29
20
 90.93
30
 13.84
11
104.37
21
 89.82
31
 14.82
0
LINE
8
CentreLine
10
104.37
20
 89.82
30
 14.82
11
104.99
21
 89.77
31
 14.71
0
LINE
8
CentreLine
10
104.37
20
 89.82
30
 14.82
11
104.60
21
 89.75
31
 15.16
0
LINE
8
CentreLine
10
104.37
20
 89.82
30
 14.82
11
103.98
21
 90.18
31
 14.64
0
LINE
8
CentreLine
10
104.37
20
 89.82
30
 14.82
11
104.71
21
 89.55
31
 14.46
0
LINE
8
CentreLine
10
104.37
20
 89.82
30
 14.82
11
104.41
21
 87.85
31
 14.84
0
LINE
8
CentreLine
10
104.41
20
 87.85
30
 14.84
11
104.28
21
 87.93
31
 13.99
0
LINE
8
CentreLine
10
104.41
20
 87.85
30
 14.84
11
103.72
21
 87.93
31
 14.79
0
LINE
8
CentreLine
10
104.41
20
 87.85
30
 14.84
11
103.89
21
 87.01
31
 14.93
0
LINE
8
CentreLine
10
103.89
20
 87.01
30
 14.93
11
103.74
21
 87.06
31
 14.45
0
LINE
8
CentreLine
10
103.89
20
 87.01
30
 14.93
11
103.81
21
 86.58
31
 14.73
0
LINE
8
CentreLine
10
103.89
20
 87.01
30
 14.93
11
103.76
21
 87.76
31
 14.90
0
LINE
8
CentreLine
10
103.89
20
 87.01
30
 14.93
11
102.36
21
 86.62
31
 15.14
0
LINE
8
CentreLine
10
103.89
20
 87.01
30
 14.93
11
103.33
21
 87.09
31
 14.41
0
LINE
8
CentreLine
10
103.89
20
 87.01
30
 14.93
11
103.32
21
 87.10
31
 14.42
0
LINE
8
CentreLine
10
103.89
20
 87.01
30
 14.93
11
103.32
21
 87.11
31
 14.42
0
LINE
8
CentreLine
10
103.89
20
 87.01
30
 14.93
11
103.29
21
 87.07
31
 14.43
0
LINE
8
CentreLine
10
103.89
20
 87.01
30
 14.93
11
103.28
21
 87.10
31
 14.44
0
LINE
8
CentreLine
10
103.89
20
 87.01
30
 14.93
11
103.28
21
 87.10
31
 14.44
0
LINE
8
CentreLine
10
103.89
20
 87.01
30
 14.93
11
103.28
21
 87.07
31
 14.41
0
LINE
8
CentreLine
10
103.28
20
 87.07
30
 14.41
11
103.35
21
 87.20
31
 15.24
0
LINE
8
CentreLine
10
103.28
20
 87.07
30
 14.41
11
103.40
21
 87.58
31
 14.87
0
LINE
8
CentreLine
10
103.28
20
 87.07
30
 14.41
11
103.41
21
 86.55
31
 14.65
0
LINE
8
CentreLine
10
103.28
20
 87.07
30
 14.41
11
102.43
21
 86.96
31
 15.59
0
LINE
8
CentreLine
10
102.43
20
 86.96
30
 15.59
11
102.31
21
 85.22
31
 15.73
0
LINE
8
CentreLine
10
102.43
20
 86.96
30
 15.59
11
102.24
21
 86.56
31
 15.10
0
LINE
8
CentreLine
10
102.43
20
 86.96
30
 15.59
11
102.52
21
 86.36
31
 16.24
0
LINE
8
CentreLine
10
102.43
20
 86.96
30
 15.59
11
100.98
21
 84.23
31
 16.07
0
LINE
8
CentreLine
10
102.43
20
 86.96
30
 15.59
11
100.33
21
 83.01
31
 16.29
0
LINE
8
CentreLine
10
102.43
20
 86.96
30
 15.59
11
100.99
21
 84.23
31
 16.06
0
LINE
8
CentreLine
10
102.43
20
 86.96
30
 15.59
11
100.98
21
 84.23
31
 16.06
0
LINE
8
CentreLine
10
102.43
20
 86.96
30
 15.59
11
100.33
21
 83.00
31
 16.28
0
LINE
8
CentreLine
10
102.43
20
 86.96
30
 15.59
11
100.96
21
 84.23
31
 16.06
0
LINE
8
CentreLine
10
100.96
20
 84.23
30
 16.06
11
100.58
21
 84.86
31
 15.42
0
LINE
8
CentreLine
10
100.96
20
 84.23
30
 16.06
11
100.64
21
 85.98
31
 16.36
0
LINE
8
CentreLine
10
100.96
20
 84.23
30
 16.06
11
101.03
21
 84.27
31
 16.64
0
LINE
8
CentreLine
10
100.96
20
 84.23
30
 16.06
11
101.04
21
 83.91
31
 16.09
0
LINE
8
CentreLine
10
100.96
20
 84.23
30
 16.06
11
 99.79
21
 83.44
31
 16.50
0
LINE
8
CentreLine
10
 99.79
20
 83.44
30
 16.50
11
 99.65
21
 83.13
31
 16.03
0
LINE
8
CentreLine
10
 99.79
20
 83.44
30
 16.50
11
 99.84
21
 82.75
31
 16.30
0
LINE
8
CentreLine
10
 99.79
20
 83.44
30
 16.50
11
 99.85
21
 83.30
31
 16.61
0
LINE
8
CentreLine
10
 99.79
20
 83.44
30
 16.50
11
 99.50
21
 83.02
31
 16.48
0
LINE
8
CentreLine
10
 99.50
20
 83.02
30
 16.48
11
 99.69
21
 83.05
31
 16.68
0
LINE
8
CentreLine
10
 99.50
20
 83.02
30
 16.48
11
 99.21
21
 82.77
31
 16.28
0
LINE
8
CentreLine
10
 99.50
20
 83.02
30
 16.48
11
 99.54
21
 82.51
31
 16.37
0
LINE
8
CentreLine
10
 99.50
20
 83.02
30
 16.48
11
 99.51
21
 83.32
31
 16.59
0
LINE
8
CentreLine
10
 99.50
20
 83.02
30
 16.48
11
 99.29
21
 82.70
31
 16.92
0
LINE
8
CentreLine
10
 99.29
20
 82.70
30
 16.92
11
 98.65
21
 82.88
31
 16.44
0
LINE
8
CentreLine
10
 99.29
20
 82.70
30
 16.92
11
 99.26
21
 83.20
31
 16.84
0
LINE
8
CentreLine
10
 99.29
20
 82.70
30
 16.92
11
 98.32
21
 82.89
31
 17.24
0
LINE
8
CentreLine
10
 99.29
20
 82.70
30
 16.92
11
 97.55
21
 83.50
31
 17.47
0
LINE
8
CentreLine
10
 99.29
20
 82.70
30
 16.92
11
 96.86
21
 84.47
31
 17.62
0
LINE
8
CentreLine
10
 99.29
20
 82.70
30
 16.92
11
 97.83
21
 83.56
31
 16.89
0
LINE
8
CentreLine
10
 99.29
20
 82.70
30
 16.92
11
 98.27
21
 83.74
31
 17.41
0
LINE
8
CentreLine
10
 99.29
20
 82.70
30
 16.92
11
 97.95
21
 81.21
31
 17.54
0
LINE
8
CentreLine
10
 99.29
20
 82.70
30
 16.92
11
 98.29
21
 81.64
31
 17.31
0
LINE
8
CentreLine
10
 99.29
20
 82.70
30
 16.92
11
 97.80
21
 81.50
31
 17.55
0
LINE
8
CentreLine
10
 99.29
20
 82.70
30
 16.92
11
 98.53
21
 83.29
31
 16.73
0
LINE
8
CentreLine
10
 98.53
20
 83.29
30
 16.73
11
 96.54
21
 84.92
31
 17.81
0
LINE
8
CentreLine
10
109.29
20
 94.21
30
  9.58
11
110.98
21
 94.79
31
  9.20
0
LINE
8
CentreLine
10
110.98
20
 94.79
30
  9.20
11
111.95
21
 94.55
31
  7.70
0
LINE
8
CentreLine
10
111.95
20
 94.55
30
  7.70
11
112.63
21
 94.50
31
  8.97
0
LINE
8
CentreLine
10
111.95
20
 94.55
30
  7.70
11
112.85
21
 94.46
31
  9.36
0
LINE
8
CentreLine
10
111.95
20
 94.55
30
  7.70
11
112.63
21
 94.50
31
  8.99
0
LINE
8
CentreLine
10
111.95
20
 94.55
30
  7.70
11
112.63
21
 94.50
31
  9.00
0
LINE
8
CentreLine
10
111.95
20
 94.55
30
  7.70
11
112.42
21
 94.51
31
  8.60
0
LINE
8
CentreLine
10
111.95
20
 94.55
30
  7.70
11
112.56
21
 94.31
31
  8.83
0
LINE
8
CentreLine
10
112.56
20
 94.31
30
  8.83
11
112.07
21
 94.13
31
 11.04
0
LINE
8
CentreLine
10
 98.53
20
 83.29
30
 16.73
11
 98.66
21
 82.39
31
 16.93
0
LINE
8
CentreLine
10
 98.66
20
 82.39
30
 16.93
11
 98.63
21
 82.27
31
 16.78
0
LINE
8
CentreLine
10
 98.66
20
 82.39
30
 16.93
11
 99.10
21
 81.52
31
 17.17
0
LINE
8
CentreLine
10
 98.66
20
 82.39
30
 16.93
11
 98.78
21
 82.22
31
 17.21
0
LINE
8
CentreLine
10
 98.66
20
 82.39
30
 16.93
11
 98.81
21
 83.61
31
 16.88
0
LINE
8
CentreLine
10
 98.66
20
 82.39
30
 16.93
11
 98.41
21
 81.01
31
 17.51
0
LINE
8
CentreLine
10
 98.41
20
 81.01
30
 17.51
11
 97.97
21
 81.13
31
 17.01
0
LINE
8
CentreLine
10
 98.41
20
 81.01
30
 17.51
11
 98.19
21
 81.77
31
 17.44
0
LINE
8
CentreLine
10
 98.41
20
 81.01
30
 17.51
11
 98.37
21
 80.55
31
 17.40
0
LINE
8
CentreLine
10
 98.41
20
 81.01
30
 17.51
11
 97.45
21
 81.02
31
 17.94
0
LINE
8
CentreLine
10
 97.45
20
 81.02
30
 17.94
11
 97.46
21
 79.88
31
 17.89
0
LINE
8
CentreLine
10
 97.45
20
 81.02
30
 17.94
11
 97.42
21
 80.78
31
 17.76
0
LINE
8
CentreLine
10
 97.45
20
 81.02
30
 17.94
11
 97.79
21
 80.56
31
 18.31
0
LINE
8
CentreLine
10
 97.45
20
 81.02
30
 17.94
11
 96.70
21
 80.60
31
 18.00
0
LINE
8
CentreLine
10
 96.70
20
 80.60
30
 18.00
11
 97.02
21
 80.57
31
 17.35
0
LINE
8
CentreLine
10
 96.70
20
 80.60
30
 18.00
11
 96.87
21
 80.94
31
 17.96
0
LINE
8
CentreLine
10
 96.70
20
 80.60
30
 18.00
11
 97.06
21
 79.70
31
 17.91
0
LINE
8
CentreLine
10
 96.70
20
 80.60
30
 18.00
11
 96.53
21
 80.24
31
 17.87
0
LINE
8
CentreLine
10
 96.70
20
 80.60
30
 18.00
11
 95.78
21
 79.60
31
 16.51
0
LINE
8
CentreLine
10
 96.70
20
 80.60
30
 18.00
11
 95.19
21
 78.71
31
 17.01
0
LINE
8
CentreLine
10
 96.70
20
 80.60
30
 18.00
11
 95.10
21
 76.92
31
 17.25
0
LINE
8
CentreLine
10
 96.70
20
 80.60
30
 18.00
11
 95.38
21
 76.60
31
 17.31
0
LINE
8
CentreLine
10
 96.70
20
 80.60
30
 18.00
11
 95.52
21
 80.01
31
 14.21
0
LINE
8
CentreLine
10
 96.70
20
 80.60
30
 18.00
11
 97.65
21
 78.10
31
 19.08
0
LINE
8
CentreLine
10
 96.70
20
 80.60
30
 18.00
11
 96.88
21
 80.05
31
 17.15
0
LINE
8
CentreLine
10
 96.70
20
 80.60
30
 18.00
11
 96.83
21
 80.06
31
 17.15
0
LINE
8
CentreLine
10
 96.83
20
 80.06
30
 17.15
11
 96.51
21
 80.05
31
 16.47
0
LINE
8
CentreLine
10
 96.83
20
 80.06
30
 17.15
11
 96.67
21
 80.78
31
 16.83
0
LINE
8
CentreLine
10
 96.83
20
 80.06
30
 17.15
11
 95.49
21
 79.57
31
 17.30
0
LINE
8
CentreLine
10
 96.83
20
 80.06
30
 17.15
11
 96.82
21
 73.60
31
 16.42
0
LINE
8
CentreLine
10
 96.83
20
 80.06
30
 17.15
11
 95.86
21
 73.81
31
 17.49
0
LINE
8
CentreLine
10
 96.83
20
 80.06
30
 17.15
11
 95.92
21
 76.35
31
 17.28
0
LINE
8
CentreLine
10
 95.92
20
 76.35
30
 17.28
11
 96.06
21
 76.33
31
 17.68
0
LINE
8
CentreLine
10
 95.92
20
 76.35
30
 17.28
11
 95.97
21
 73.03
31
 16.86
0
LINE
8
CentreLine
10
 95.92
20
 76.35
30
 17.28
11
 96.00
21
 76.23
31
 17.00
0
LINE
8
CentreLine
10
 95.92
20
 76.35
30
 17.28
11
 96.07
21
 80.41
31
 17.33
0
LINE
8
CentreLine
10
 95.92
20
 76.35
30
 17.28
11
 98.67
21
 78.28
31
 17.30
0
LINE
8
CentreLine
10
 95.92
20
 76.35
30
 17.28
11
 98.37
21
 77.02
31
 17.69
0
LINE
8
CentreLine
10
 95.92
20
 76.35
30
 17.28
11
 98.48
21
 76.20
31
 17.68
0
LINE
8
CentreLine
10
 95.92
20
 76.35
30
 17.28
11
 97.47
21
 74.32
31
 18.45
0
LINE
8
CentreLine
10
 95.92
20
 76.35
30
 17.28
11
 96.06
21
 74.91
31
 17.55
0
LINE
8
CentreLine
10
 96.06
20
 74.91
30
 17.55
11
 92.63
21
 76.20
31
 19.17
0
LINE
8
CentreLine
10
 96.06
20
 74.91
30
 17.55
11
 92.96
21
 77.18
31
 19.23
0
LINE
8
CentreLine
10
 96.06
20
 74.91
30
 17.55
11
 92.93
21
 78.41
31
 19.29
0
LINE
8
CentreLine
10
 96.06
20
 74.91
30
 17.55
11
 93.55
21
 79.24
31
 19.09
0
LINE
8
CentreLine
10
 96.06
20
 74.91
30
 17.55
11
 95.89
21
 77.47
31
 17.83
0
LINE
8
CentreLine
10
 96.06
20
 74.91
30
 17.55
11
 97.71
21
 75.08
31
 16.36
0
LINE
8
CentreLine
10
 96.06
20
 74.91
30
 17.55
11
 95.98
21
 73.70
31
 17.21
0
LINE
8
CentreLine
10
 96.06
20
 74.91
30
 17.55
11
 93.11
21
 70.09
31
 15.51
0
LINE
8
CentreLine
10
 96.06
20
 74.91
30
 17.55
11
 93.12
21
 70.05
31
 15.42
0
LINE
8
CentreLine
10
 93.12
20
 70.05
30
 15.42
11
 93.24
21
 69.99
31
 14.78
0
LINE
8
CentreLine
10
 93.12
20
 70.05
30
 15.42
11
 93.70
21
 70.35
31
 16.69
0
LINE
8
CentreLine
10
 93.12
20
 70.05
30
 15.42
11
 92.53
21
 72.53
31
 18.62
0
LINE
8
CentreLine
10
 93.12
20
 70.05
30
 15.42
11
 94.12
21
 74.28
31
 18.48
0
LINE
8
CentreLine
10
 93.12
20
 70.05
30
 15.42
11
 94.30
21
 75.65
31
 18.72
0
LINE
8
CentreLine
10
 93.12
20
 70.05
30
 15.42
11
 93.79
21
 72.01
31
 17.93
0
LINE
8
CentreLine
10
 93.12
20
 70.05
30
 15.42
11
 93.48
21
 70.45
31
 16.94
0
LINE
8
CentreLine
10
 93.12
20
 70.05
30
 15.42
11
 93.46
21
 69.90
31
 16.57
0
LINE
8
CentreLine
10
 93.12
20
 70.05
30
 15.42
11
 93.49
21
 69.02
31
 15.38
0
LINE
8
CentreLine
10
 93.12
20
 70.05
30
 15.42
11
 99.05
21
 72.61
31
 14.31
0
LINE
8
CentreLine
10
 93.12
20
 70.05
30
 15.42
11
 99.11
21
 71.66
31
 13.83
0
LINE
8
CentreLine
10
 93.12
20
 70.05
30
 15.42
11
 98.18
21
 70.78
31
 13.73
0
LINE
8
CentreLine
10
 93.12
20
 70.05
30
 15.42
11
 97.14
21
 70.08
31
 13.91
0
LINE
8
CentreLine
10
 93.12
20
 70.05
30
 15.42
11
 96.01
21
 69.07
31
 14.14
0
LINE
8
CentreLine
10
 93.12
20
 70.05
30
 15.42
11
 94.69
21
 68.49
31
 14.49
0
LINE
8
CentreLine
10
 93.12
20
 70.05
30
 15.42
11
 93.44
21
 68.95
31
 15.10
0
LINE
8
CentreLine
10
 93.12
20
 70.05
30
 15.42
11
 93.15
21
 68.62
31
 13.82
0
LINE
8
CentreLine
10
 93.15
20
 68.62
30
 13.82
11
 93.18
21
 68.52
31
 14.52
0
LINE
8
CentreLine
10
 93.15
20
 68.62
30
 13.82
11
 92.89
21
 67.62
31
 14.22
0
LINE
8
CentreLine
10
 93.15
20
 68.62
30
 13.82
11
 93.17
21
 69.27
31
 14.11
0
LINE
8
CentreLine
10
 93.15
20
 68.62
30
 13.82
11
 89.06
21
 67.60
31
 14.96
0
LINE
8
CentreLine
10
 93.15
20
 68.62
30
 13.82
11
 89.11
21
 67.62
31
 14.94
0
LINE
8
CentreLine
10
 89.11
20
 67.62
30
 14.94
11
 89.29
21
 66.86
31
 14.99
0
LINE
8
CentreLine
10
 89.11
20
 67.62
30
 14.94
11
 89.19
21
 67.36
31
 14.50
0
LINE
8
CentreLine
10
 89.11
20
 67.62
30
 14.94
11
 89.23
21
 68.36
31
 15.35
0
LINE
8
CentreLine
10
 89.11
20
 67.62
30
 14.94
11
 89.31
21
 67.61
31
 15.56
0
LINE
8
CentreLine
10
 89.11
20
 67.62
30
 14.94
11
 87.88
21
 66.64
31
 15.43
0
LINE
8
CentreLine
10
 87.88
20
 66.64
30
 15.43
11
 87.93
21
 66.68
31
 14.95
0
LINE
8
CentreLine
10
 87.88
20
 66.64
30
 15.43
11
 87.83
21
 65.46
31
 15.05
0
LINE
8
CentreLine
10
 87.88
20
 66.64
30
 15.43
11
 87.98
21
 67.23
31
 15.45
0
LINE
8
CentreLine
10
 87.88
20
 66.64
30
 15.43
11
 90.02
21
 68.18
31
 15.12
0
LINE
8
CentreLine
10
 87.88
20
 66.64
30
 15.43
11
 86.29
21
 65.72
31
 14.58
0
LINE
8
CentreLine
10
 86.29
20
 65.72
30
 14.58
11
 86.34
21
 65.70
31
 15.05
0
LINE
8
CentreLine
10
 86.29
20
 65.72
30
 14.58
11
 86.28
21
 64.65
31
 15.00
0
LINE
8
CentreLine
10
 86.29
20
 65.72
30
 14.58
11
 86.26
21
 66.29
31
 14.70
0
LINE
8
CentreLine
10
 86.29
20
 65.72
30
 14.58
11
 83.91
21
 65.01
31
 15.54
0
LINE
8
CentreLine
10
 83.91
20
 65.01
30
 15.54
11
 83.87
21
 64.52
31
 14.52
0
LINE
8
CentreLine
10
 83.91
20
 65.01
30
 15.54
11
 83.95
21
 63.92
31
 15.43
0
LINE
8
CentreLine
10
 83.91
20
 65.01
30
 15.54
11
 84.31
21
 64.57
31
 16.04
0
LINE
8
CentreLine
10
 83.91
20
 65.01
30
 15.54
11
 83.97
21
 65.63
31
 15.26
0
LINE
8
CentreLine
10
 83.91
20
 65.01
30
 15.54
11
 84.22
21
 65.13
31
 14.05
0
LINE
8
CentreLine
10
 83.91
20
 65.01
30
 15.54
11
 81.34
21
 63.22
31
 15.58
0
LINE
8
CentreLine
10
 83.91
20
 65.01
30
 15.54
11
 80.96
21
 62.96
31
 15.58
0
LINE
8
CentreLine
10
 83.91
20
 65.01
30
 15.54
11
 80.92
21
 62.93
31
 15.58
0
LINE
8
CentreLine
10
 83.91
20
 65.01
30
 15.54
11
 81.33
21
 63.22
31
 15.57
0
LINE
8
CentreLine
10
 81.33
20
 63.22
30
 15.57
11
 81.65
21
 62.72
31
 16.18
0
LINE
8
CentreLine
10
 81.33
20
 63.22
30
 15.57
11
 81.41
21
 63.21
31
 16.11
0
LINE
8
CentreLine
10
 81.33
20
 63.22
30
 15.57
11
 81.82
21
 63.12
31
 14.75
0
LINE
8
CentreLine
10
 81.33
20
 63.22
30
 15.57
11
 81.75
21
 63.81
31
 15.63
0
LINE
8
CentreLine
10
 81.33
20
 63.22
30
 15.57
11
 81.35
21
 62.59
31
 14.47
0
LINE
8
CentreLine
10
 81.35
20
 62.59
30
 14.47
11
 80.90
21
 62.60
31
 14.92
0
LINE
8
CentreLine
10
 81.35
20
 62.59
30
 14.47
11
 80.91
21
 63.59
31
 14.45
0
LINE
8
CentreLine
10
 81.35
20
 62.59
30
 14.47
11
 81.16
21
 62.12
31
 14.52
0
LINE
8
CentreLine
10
 81.35
20
 62.59
30
 14.47
11
 76.76
21
 61.37
31
 16.10
0
LINE
8
CentreLine
10
 76.76
20
 61.37
30
 16.10
11
 76.93
21
 61.33
31
 16.42
0
LINE
8
CentreLine
10
 76.76
20
 61.37
30
 16.10
11
 76.67
21
 62.53
31
 16.20
0
LINE
8
CentreLine
10
 76.76
20
 61.37
30
 16.10
11
 76.79
21
 60.51
31
 16.30
0
LINE
8
CentreLine
10
 76.76
20
 61.37
30
 16.10
11
 75.84
21
 60.87
31
 17.45
0
LINE
8
CentreLine
10
 75.84
20
 60.87
30
 17.45
11
 75.57
21
 60.93
31
 17.09
0
LINE
8
CentreLine
10
 75.84
20
 60.87
30
 17.45
11
 75.59
21
 61.94
31
 17.42
0
LINE
8
CentreLine
10
 75.84
20
 60.87
30
 17.45
11
 75.83
21
 60.04
31
 17.41
0
LINE
8
CentreLine
10
 75.84
20
 60.87
30
 17.45
11
 74.67
21
 60.91
31
 17.79
0
LINE
8
CentreLine
10
 74.67
20
 60.91
30
 17.79
11
 74.97
21
 60.86
31
 18.20
0
LINE
8
CentreLine
10
 74.67
20
 60.91
30
 17.79
11
 74.93
21
 59.52
31
 17.92
0
LINE
8
CentreLine
10
 74.67
20
 60.91
30
 17.79
11
 74.78
21
 61.55
31
 18.11
0
LINE
8
CentreLine
10
 74.67
20
 60.91
30
 17.79
11
 73.79
21
 59.96
31
 18.95
0
LINE
8
CentreLine
10
 73.79
20
 59.96
30
 18.95
11
 73.95
21
 58.99
31
 18.81
0
LINE
8
CentreLine
10
 73.79
20
 59.96
30
 18.95
11
 73.90
21
 59.93
31
 18.35
0
LINE
8
CentreLine
10
 73.79
20
 59.96
30
 18.95
11
 73.65
21
 60.90
31
 18.29
0
LINE
8
CentreLine
10
 73.79
20
 59.96
30
 18.95
11
 74.44
21
 59.32
31
 19.37
0
LINE
8
CentreLine
10
 73.79
20
 59.96
30
 18.95
11
 73.28
21
 59.28
31
 18.22
0
LINE
8
CentreLine
10
 73.28
20
 59.28
30
 18.22
11
 73.17
21
 59.38
31
 18.63
0
LINE
8
CentreLine
10
 73.28
20
 59.28
30
 18.22
11
 73.09
21
 58.32
31
 18.49
0
LINE
8
CentreLine
10
 73.28
20
 59.28
30
 18.22
11
 73.00
21
 60.59
31
 18.34
0
LINE
8
CentreLine
10
 73.28
20
 59.28
30
 18.22
11
 72.34
21
 59.10
31
 18.24
0
LINE
8
CentreLine
10
 72.34
20
 59.10
30
 18.24
11
 72.40
21
 59.10
31
 18.54
0
LINE
8
CentreLine
10
 72.34
20
 59.10
30
 18.24
11
 72.18
21
 60.05
31
 18.44
0
LINE
8
CentreLine
10
 72.34
20
 59.10
30
 18.24
11
 72.22
21
 58.05
31
 18.32
0
LINE
8
CentreLine
10
 72.34
20
 59.10
30
 18.24
11
 70.37
21
 57.88
31
 19.79
0
LINE
8
CentreLine
10
 70.37
20
 57.88
30
 19.79
11
 70.37
21
 59.40
31
 20.05
0
LINE
8
CentreLine
10
 70.37
20
 57.88
30
 19.79
11
 70.52
21
 57.92
31
 20.06
0
LINE
8
CentreLine
10
 70.37
20
 57.88
30
 19.79
11
 70.72
21
 57.10
31
 19.81
0
LINE
8
CentreLine
10
 70.37
20
 57.88
30
 19.79
11
 70.18
21
 56.91
31
 19.84
0
LINE
8
CentreLine
10
 70.18
20
 56.91
30
 19.84
11
 67.11
21
 57.04
31
 21.12
0
LINE
8
CentreLine
10
 67.11
20
 57.04
30
 21.12
11
 68.36
21
 56.17
31
 22.91
0
LINE
8
CentreLine
10
 67.11
20
 57.04
30
 21.12
11
 67.12
21
 56.40
31
 20.03
0
LINE
8
CentreLine
10
 67.11
20
 57.04
30
 21.12
11
 67.26
21
 55.59
31
 20.89
0
LINE
8
CentreLine
10
 67.11
20
 57.04
30
 21.12
11
 67.02
21
 56.27
31
 23.24
0
LINE
8
CentreLine
10
 67.11
20
 57.04
30
 21.12
11
 66.00
21
 55.83
31
 19.36
0
LINE
8
CentreLine
10
 67.11
20
 57.04
30
 21.12
11
 66.98
21
 55.64
31
 21.29
0
LINE
8
CentreLine
10
 67.11
20
 57.04
30
 21.12
11
 63.27
21
 55.08
31
 23.30
0
LINE
8
CentreLine
10
 63.27
20
 55.08
30
 23.30
11
 63.01
21
 55.16
31
 22.66
0
LINE
8
CentreLine
10
 63.27
20
 55.08
30
 23.30
11
 63.37
21
 55.49
31
 24.05
0
LINE
8
CentreLine
10
 63.27
20
 55.08
30
 23.30
11
 62.96
21
 56.38
31
 23.05
0
LINE
8
CentreLine
10
 63.27
20
 55.08
30
 23.30
11
 62.76
21
 54.46
31
 22.92
0
LINE
8
CentreLine
10
 63.27
20
 55.08
30
 23.30
11
 59.44
21
 53.06
31
 23.37
0
LINE
8
CentreLine
10
 59.44
20
 53.06
30
 23.37
11
 59.06
21
 53.15
31
 21.56
0
LINE
8
CentreLine
10
 59.44
20
 53.06
30
 23.37
11
 59.02
21
 54.49
31
 21.77
0
LINE
8
CentreLine
10
 59.44
20
 53.06
30
 23.37
11
 59.07
21
 55.18
31
 22.77
0
LINE
8
CentreLine
10
 59.44
20
 53.06
30
 23.37
11
 59.16
21
 55.31
31
 23.31
0
LINE
8
CentreLine
10
 59.44
20
 53.06
30
 23.37
11
 59.54
21
 53.70
31
 25.28
0
LINE
8
CentreLine
10
 59.44
20
 53.06
30
 23.37
11
 59.38
21
 54.67
31
 25.30
0
LINE
8
CentreLine
10
 59.44
20
 53.06
30
 23.37
11
 62.42
21
 56.27
31
 21.88
0
LINE
8
CentreLine
10
 59.44
20
 53.06
30
 23.37
11
 61.12
21
 56.73
31
 22.16
0
LINE
8
CentreLine
10
 59.44
20
 53.06
30
 23.37
11
 60.30
21
 56.51
31
 22.62
0
LINE
8
CentreLine
10
 59.44
20
 53.06
30
 23.37
11
 59.74
21
 55.47
31
 22.48
0
LINE
8
CentreLine
10
 59.44
20
 53.06
30
 23.37
11
 60.30
21
 55.44
31
 23.29
0
LINE
8
CentreLine
10
 59.44
20
 53.06
30
 23.37
11
 57.76
21
 53.40
31
 25.82
0
LINE
8
CentreLine
10
 57.76
20
 53.40
30
 25.82
11
 57.03
21
 53.31
31
 22.91
0
LINE
8
CentreLine
10
 57.76
20
 53.40
30
 25.82
11
 57.05
21
 51.69
31
 24.05
0
LINE
8
CentreLine
10
 57.76
20
 53.40
30
 25.82
11
 57.23
21
 54.62
31
 25.10
0
LINE
8
CentreLine
10
 57.76
20
 53.40
30
 25.82
11
 56.56
21
 52.04
31
 24.73
0
LINE
8
CentreLine
10
 57.76
20
 53.40
30
 25.82
11
 56.71
21
 52.16
31
 24.88
0
LINE
8
CentreLine
10
 56.71
20
 52.16
30
 24.88
11
 56.10
21
 52.32
31
 22.09
0
LINE
8
CentreLine
10
 56.71
20
 52.16
30
 24.88
11
 56.66
21
 53.22
31
 24.74
0
LINE
8
CentreLine
10
 56.71
20
 52.16
30
 24.88
11
 56.80
21
 52.19
31
 25.89
0
LINE
8
CentreLine
10
 56.71
20
 52.16
30
 24.88
11
 56.83
21
 51.80
31
 21.89
0
LINE
8
CentreLine
10
 56.71
20
 52.16
30
 24.88
11
 55.89
21
 51.70
31
 21.93
0
LINE
8
CentreLine
10
 56.71
20
 52.16
30
 24.88
11
 55.30
21
 51.60
31
 21.80
0
LINE
8
CentreLine
10
 56.71
20
 52.16
30
 24.88
11
 55.14
21
 51.80
31
 22.92
0
LINE
8
CentreLine
10
 56.71
20
 52.16
30
 24.88
11
 54.43
21
 51.85
31
 23.70
0
LINE
8
CentreLine
10
 56.71
20
 52.16
30
 24.88
11
 54.29
21
 51.66
31
 24.46
0
LINE
8
CentreLine
10
 56.71
20
 52.16
30
 24.88
11
 55.32
21
 51.84
31
 26.19
0
LINE
8
CentreLine
10
 56.71
20
 52.16
30
 24.88
11
 55.80
21
 53.25
31
 26.28
0
LINE
8
CentreLine
10
 56.71
20
 52.16
30
 24.88
11
 54.53
21
 52.09
31
 25.77
0
LINE
8
CentreLine
10
 54.53
20
 52.09
30
 25.77
11
 54.30
21
 51.09
31
 25.78
0
LINE
8
CentreLine
10
 54.53
20
 52.09
30
 25.77
11
 54.96
21
 51.77
31
 26.77
0
LINE
8
CentreLine
10
 54.53
20
 52.09
30
 25.77
11
 53.82
21
 51.57
31
 25.06
0
LINE
8
CentreLine
10
 54.53
20
 52.09
30
 25.77
11
 53.09
21
 51.15
31
 25.57
0
LINE
8
CentreLine
10
 54.53
20
 52.09
30
 25.77
11
 52.82
21
 51.74
31
 26.28
0
LINE
8
CentreLine
10
 52.82
20
 51.74
30
 26.28
11
 52.90
21
 50.89
31
 26.23
0
LINE
8
CentreLine
10
 52.82
20
 51.74
30
 26.28
11
 53.07
21
 51.38
31
 26.80
0
LINE
8
CentreLine
10
 52.82
20
 51.74
30
 26.28
11
 52.72
21
 51.40
31
 25.85
0
LINE
8
CentreLine
10
 52.82
20
 51.74
30
 26.28
11
 53.06
21
 51.73
31
 26.96
0
LINE
8
CentreLine
10
 52.82
20
 51.74
30
 26.28
11
 52.69
21
 50.85
31
 26.35
0
LINE
8
CentreLine
10
 52.82
20
 51.74
30
 26.28
11
 52.31
21
 51.59
31
 26.17
0
LINE
8
CentreLine
10
 52.31
20
 51.59
30
 26.17
11
 52.63
21
 51.58
31
 27.28
0
LINE
8
CentreLine
10
 52.31
20
 51.59
30
 26.17
11
 51.97
21
 50.79
31
 26.58
0
LINE
8
CentreLine
10
 52.31
20
 51.59
30
 26.17
11
 52.30
21
 52.16
31
 27.06
0
LINE
8
CentreLine
10
 52.31
20
 51.59
30
 26.17
11
 52.12
21
 51.77
31
 26.34
0
LINE
8
CentreLine
10
 52.12
20
 51.77
30
 26.34
11
 50.97
21
 51.55
31
 27.67
0
LINE
8
CentreLine
10
 50.97
20
 51.55
30
 27.67
11
 50.80
21
 51.82
31
 27.25
0
LINE
8
CentreLine
10
 50.97
20
 51.55
30
 27.67
11
 51.08
21
 51.87
31
 27.51
0
LINE
8
CentreLine
10
 50.97
20
 51.55
30
 27.67
11
 51.18
21
 51.54
31
 27.88
0
LINE
8
CentreLine
10
 50.97
20
 51.55
30
 27.67
11
 50.00
21
 52.37
31
 28.05
0
LINE
8
CentreLine
10
 52.12
20
 51.77
30
 26.34
11
 51.49
21
 51.01
31
 26.47
0
LINE
8
CentreLine
10
 51.49
20
 51.01
30
 26.47
11
 51.73
21
 51.17
31
 25.82
0
LINE
8
CentreLine
10
 51.49
20
 51.01
30
 26.47
11
 51.09
21
 51.26
31
 26.83
0
LINE
8
CentreLine
10
 51.49
20
 51.01
30
 26.47
11
 51.48
21
 50.61
31
 26.34
0
LINE
8
CentreLine
10
 51.49
20
 51.01
30
 26.47
11
 51.35
21
 51.65
31
 26.51
0
LINE
8
CentreLine
10
 51.49
20
 51.01
30
 26.47
11
 50.37
21
 50.00
31
 25.60
0
LINE
8
CentreLine
10
 52.12
20
 51.77
30
 26.34
11
 51.76
21
 51.68
31
 26.19
0
LINE
8
CentreLine
10
 51.76
20
 51.68
30
 26.19
11
 51.83
21
 53.73
31
 26.46
0
LINE
8
CentreLine
10
 93.12
20
 70.05
30
 15.42
11
 95.43
21
 69.73
31
 14.11
0
LINE
8
CentreLine
10
 95.43
20
 69.73
30
 14.11
11
 96.56
21
 70.62
31
 15.06
0
LINE
8
CentreLine
10
 96.56
20
 70.62
30
 15.06
11
 96.53
21
 70.22
31
 15.08
0
LINE
8
CentreLine
10
 96.56
20
 70.62
30
 15.06
11
 96.35
21
 70.47
31
 15.11
0
LINE
8
CentreLine
10
 96.56
20
 70.62
30
 15.06
11
 96.72
21
 70.35
31
 15.03
0
LINE
8
CentreLine
10
 96.56
20
 70.62
30
 15.06
11
 97.18
21
 70.14
31
 16.14
0
LINE
8
CentreLine
10
 97.18
20
 70.14
30
 16.14
11
 96.10
21
 70.13
31
 15.93
0
LINE
8
CentreLine
10
 97.18
20
 70.14
30
 16.14
11
 97.25
21
 70.57
31
 15.97
0
LINE
8
CentreLine
10
 97.18
20
 70.14
30
 16.14
11
 97.09
21
 69.85
31
 16.13
0
LINE
8
CentreLine
10
 97.18
20
 70.14
30
 16.14
11
 97.35
21
 69.92
31
 15.15
0
LINE
8
CentreLine
10
 97.18
20
 70.14
30
 16.14
11
 95.70
21
 70.12
31
 16.48
0
LINE
8
CentreLine
10
 97.18
20
 70.14
30
 16.14
11
 97.36
21
 70.11
31
 15.88
0
LINE
8
CentreLine
10
 97.36
20
 70.11
30
 15.88
11
 98.75
21
 70.22
31
 15.31
0
LINE
8
CentreLine
10
 98.75
20
 70.22
30
 15.31
11
 98.54
21
 70.34
31
 14.71
0
LINE
8
CentreLine
10
 98.75
20
 70.22
30
 15.31
11
 98.70
21
 69.00
31
 14.94
0
LINE
8
CentreLine
10
 98.75
20
 70.22
30
 15.31
11
 98.59
21
 68.15
31
 14.45
0
LINE
8
CentreLine
10
 98.75
20
 70.22
30
 15.31
11
 98.87
21
 70.93
31
 15.37
0
LINE
8
CentreLine
10
 98.75
20
 70.22
30
 15.31
11
 99.18
21
 70.74
31
 15.71
0
LINE
8
CentreLine
10
 98.75
20
 70.22
30
 15.31
11
 99.76
21
 70.12
31
 14.65
0
LINE
8
CentreLine
10
 99.76
20
 70.12
30
 14.65
11
100.24
21
 70.65
31
 15.37
0
LINE
8
CentreLine
10
 99.76
20
 70.12
30
 14.65
11
 99.65
21
 70.26
31
 14.16
0
LINE
8
CentreLine
10
 99.76
20
 70.12
30
 14.65
11
 99.86
21
 71.04
31
 14.80
0
LINE
8
CentreLine
10
 99.76
20
 70.12
30
 14.65
11
101.76
21
 68.74
31
 13.88
0
LINE
8
CentreLine
10
101.76
20
 68.74
30
 13.88
11
101.67
21
 68.83
31
 13.26
0
LINE
8
CentreLine
10
101.76
20
 68.74
30
 13.88
11
102.27
21
 69.58
31
 14.53
0
LINE
8
CentreLine
10
101.76
20
 68.74
30
 13.88
11
101.86
21
 68.11
31
 13.67
0
LINE
8
CentreLine
10
101.76
20
 68.74
30
 13.88
11
 99.70
21
 69.06
31
 14.05
0
LINE
8
CentreLine
10
101.76
20
 68.74
30
 13.88
11
 99.79
21
 69.89
31
 14.60
0
LINE
8
CentreLine
10
101.76
20
 68.74
30
 13.88
11
102.86
21
 69.44
31
 12.87
0
LINE
8
CentreLine
10
102.86
20
 69.44
30
 12.87
11
103.64
21
 69.49
31
 13.63
0
LINE
8
CentreLine
10
102.86
20
 69.44
30
 12.87
11
103.28
21
 70.50
31
 13.28
0
LINE
8
CentreLine
10
102.86
20
 69.44
30
 12.87
11
103.19
21
 68.09
31
 13.12
0
LINE
8
CentreLine
10
102.86
20
 69.44
30
 12.87
11
102.86
21
 68.86
31
 12.10
0
LINE
8
CentreLine
10
102.86
20
 69.44
30
 12.87
11
104.19
21
 69.17
31
 11.28
0
LINE
8
CentreLine
10
104.19
20
 69.17
30
 11.28
11
105.52
21
 69.98
31
 12.82
0
LINE
8
CentreLine
10
104.19
20
 69.17
30
 11.28
11
104.75
21
 70.10
31
 11.61
0
LINE
8
CentreLine
10
104.19
20
 69.17
30
 11.28
11
104.19
21
 68.57
31
 11.47
0
LINE
8
CentreLine
10
104.19
20
 69.17
30
 11.28
11
103.96
21
 68.66
31
 10.92
0
LINE
8
CentreLine
10
104.19
20
 69.17
30
 11.28
11
106.45
21
 68.39
31
 10.13
0
LINE
8
CentreLine
10
104.19
20
 69.17
30
 11.28
11
106.79
21
 68.52
31
  9.89
0
LINE
8
CentreLine
10
106.79
20
 68.52
30
  9.89
11
107.75
21
 69.01
31
  7.87
0
LINE
8
CentreLine
10
107.75
20
 69.01
30
  7.87
11
108.22
21
 69.02
31
  8.88
0
LINE
8
CentreLine
10
107.75
20
 69.01
30
  7.87
11
108.01
21
 69.60
31
  8.19
0
LINE
8
CentreLine
10
107.75
20
 69.01
30
  7.87
11
107.95
21
 68.32
31
  8.30
0
LINE
8
CentreLine
10
107.75
20
 69.01
30
  7.87
11
109.29
21
 69.00
31
  8.09
0
LINE
8
CentreLine
10
109.29
20
 69.00
30
  8.09
11
108.89
21
 69.12
31
  7.31
0
LINE
8
CentreLine
10
109.29
20
 69.00
30
  8.09
11
109.22
21
 68.41
31
  7.43
0
LINE
8
CentreLine
10
109.29
20
 69.00
30
  8.09
11
109.41
21
 69.67
31
  7.74
0
LINE
8
CentreLine
10
109.29
20
 69.00
30
  8.09
11
110.21
21
 68.96
31
  6.73
0
LINE
8
CentreLine
10
110.21
20
 68.96
30
  6.73
11
110.53
21
 69.20
31
  7.94
0
LINE
8
CentreLine
10
110.21
20
 68.96
30
  6.73
11
110.46
21
 68.58
31
  8.83
0
LINE
8
CentreLine
10
110.21
20
 68.96
30
  6.73
11
110.40
21
 69.28
31
  7.11
0
LINE
8
CentreLine
10
110.21
20
 68.96
30
  6.73
11
110.21
21
 69.28
31
  6.47
0
LINE
8
CentreLine
10
110.21
20
 68.96
30
  6.73
11
112.23
21
 69.06
31
  6.68
0
LINE
8
CentreLine
10
112.23
20
 69.06
30
  6.68
11
111.79
21
 68.84
31
  5.95
0
LINE
8
CentreLine
10
112.23
20
 69.06
30
  6.68
11
112.06
21
 68.47
31
  6.20
0
LINE
8
CentreLine
10
112.23
20
 69.06
30
  6.68
11
112.16
21
 69.26
31
  6.06
0
LINE
8
CentreLine
10
112.23
20
 69.06
30
  6.68
11
112.49
21
 68.96
31
  6.89
0
LINE
8
CentreLine
10
112.23
20
 69.06
30
  6.68
11
113.44
21
 69.09
31
  5.03
0
LINE
8
CentreLine
10
113.44
20
 69.09
30
  5.03
11
113.69
21
 69.46
31
  6.02
0
LINE
8
CentreLine
10
113.44
20
 69.09
30
  5.03
11
113.43
21
 69.77
31
  5.23
0
LINE
8
CentreLine
10
113.44
20
 69.09
30
  5.03
11
113.42
21
 69.26
31
  4.91
0
LINE
8
CentreLine
10
113.44
20
 69.09
30
  5.03
11
113.45
21
 68.91
31
  5.27
0
LINE
8
CentreLine
10
113.44
20
 69.09
30
  5.03
11
114.49
21
 69.74
31
  4.94
0
LINE
8
CentreLine
10
114.49
20
 69.74
30
  4.94
11
114.49
21
 70.36
31
  5.68
0
LINE
8
CentreLine
10
114.49
20
 69.74
30
  4.94
11
114.20
21
 70.31
31
  5.09
0
LINE
8
CentreLine
10
114.49
20
 69.74
30
  4.94
11
114.08
21
 70.05
31
  4.25
0
LINE
8
CentreLine
10
114.49
20
 69.74
30
  4.94
11
115.12
21
 70.80
31
  5.01
0
LINE
8
CentreLine
10
115.12
20
 70.80
30
  5.01
11
114.80
21
 70.89
31
  4.00
0
LINE
8
CentreLine
10
115.12
20
 70.80
30
  5.01
11
115.08
21
 71.10
31
  4.61
0
LINE
8
CentreLine
10
115.12
20
 70.80
30
  5.01
11
115.08
21
 69.81
31
  4.81
0
LINE
8
CentreLine
10
115.12
20
 70.80
30
  5.01
11
115.11
21
 71.54
31
  2.86
0
LINE
8
CentreLine
10
115.12
20
 70.80
30
  5.01
11
115.65
21
 71.64
31
  2.75
0
LINE
8
CentreLine
10
115.12
20
 70.80
30
  5.01
11
115.97
21
 71.70
31
  2.91
0
LINE
8
CentreLine
10
115.12
20
 70.80
30
  5.01
11
116.46
21
 71.83
31
  3.20
0
LINE
8
CentreLine
10
115.12
20
 70.80
30
  5.01
11
116.07
21
 70.60
31
  4.64
0
LINE
8
CentreLine
10
116.07
20
 70.60
30
  4.64
11
116.29
21
 71.11
31
  5.39
0
LINE
8
CentreLine
10
116.07
20
 70.60
30
  4.64
11
116.00
21
 71.20
31
  4.57
0
LINE
8
CentreLine
10
116.07
20
 70.60
30
  4.64
11
115.76
21
 71.41
31
  3.70
0
LINE
8
CentreLine
10
116.07
20
 70.60
30
  4.64
11
115.93
21
 70.58
31
  4.29
0
LINE
8
CentreLine
10
116.07
20
 70.60
30
  4.64
11
116.93
21
 71.39
31
  4.78
0
LINE
8
CentreLine
10
116.07
20
 70.60
30
  4.64
11
116.89
21
 71.54
31
  4.35
0
LINE
8
CentreLine
10
116.07
20
 70.60
30
  4.64
11
116.49
21
 71.60
31
  3.89
0
LINE
8
CentreLine
10
116.07
20
 70.60
30
  4.64
11
116.03
21
 71.63
31
  3.50
0
LINE
8
CentreLine
10
116.07
20
 70.60
30
  4.64
11
117.17
21
 71.75
31
  4.12
000
ENDSEC
000
EOF
